  0
SECTION
  2
HEADER
  9
$ACADVER
  1
AC1032
  9
$ACADMAINTVER
 90
      248
  9
$DWGCODEPAGE
  3
ANSI_1252
  9
$REQUIREDVERSIONS
160
                 0
  9
$INSBASE
 10
0.0
 20
0.0
 30
0.0
  9
$EXTMIN
 10
250.4434274786905
 20
-225.8293382750684
 30
0.0
  9
$EXTMAX
 10
761.3912322174551
 20
150.6072984083165
 30
0.0
  9
$LIMMIN
 10
0.0
 20
0.0
  9
$LIMMAX
 10
12.0
 20
9.0
  9
$ORTHOMODE
 70
     0
  9
$REGENMODE
 70
     1
  9
$FILLMODE
 70
     1
  9
$QTEXTMODE
 70
     0
  9
$MIRRTEXT
 70
     0
  9
$LTSCALE
 40
1.0
  9
$ATTMODE
 70
     1
  9
$TEXTSIZE
 40
0.2
  9
$TRACEWID
 40
0.05
  9
$TEXTSTYLE
  7
Standard
  9
$CLAYER
  8
0
  9
$CELTYPE
  6
ByLayer
  9
$CECOLOR
 62
   256
  9
$CELTSCALE
 40
1.0
  9
$DISPSILH
 70
     0
  9
$DIMSCALE
 40
1.0
  9
$DIMASZ
 40
0.18
  9
$DIMEXO
 40
0.0625
  9
$DIMDLI
 40
0.38
  9
$DIMRND
 40
0.0
  9
$DIMDLE
 40
0.0
  9
$DIMEXE
 40
0.18
  9
$DIMTP
 40
0.0
  9
$DIMTM
 40
0.0
  9
$DIMTXT
 40
0.18
  9
$DIMCEN
 40
0.09
  9
$DIMTSZ
 40
0.0
  9
$DIMTOL
 70
     0
  9
$DIMLIM
 70
     0
  9
$DIMTIH
 70
     1
  9
$DIMTOH
 70
     1
  9
$DIMSE1
 70
     0
  9
$DIMSE2
 70
     0
  9
$DIMTAD
 70
     0
  9
$DIMZIN
 70
     0
  9
$DIMBLK
  1

  9
$DIMASO
 70
     1
  9
$DIMSHO
 70
     1
  9
$DIMPOST
  1

  9
$DIMAPOST
  1

  9
$DIMALT
 70
     0
  9
$DIMALTD
 70
     2
  9
$DIMALTF
 40
25.4
  9
$DIMLFAC
 40
1.0
  9
$DIMTOFL
 70
     0
  9
$DIMTVP
 40
0.0
  9
$DIMTIX
 70
     0
  9
$DIMSOXD
 70
     0
  9
$DIMSAH
 70
     0
  9
$DIMBLK1
  1

  9
$DIMBLK2
  1

  9
$DIMSTYLE
  2
Standard
  9
$DIMCLRD
 70
     0
  9
$DIMCLRE
 70
     0
  9
$DIMCLRT
 70
     0
  9
$DIMTFAC
 40
1.0
  9
$DIMGAP
 40
0.09
  9
$DIMJUST
 70
     0
  9
$DIMSD1
 70
     0
  9
$DIMSD2
 70
     0
  9
$DIMTOLJ
 70
     1
  9
$DIMTZIN
 70
     0
  9
$DIMALTZ
 70
     0
  9
$DIMALTTZ
 70
     0
  9
$DIMUPT
 70
     0
  9
$DIMDEC
 70
     4
  9
$DIMTDEC
 70
     4
  9
$DIMALTU
 70
     4
  9
$DIMALTTD
 70
     2
  9
$DIMTXSTY
  7
Standard
  9
$DIMAUNIT
 70
     0
  9
$DIMADEC
 70
     0
  9
$DIMALTRND
 40
0.0
  9
$DIMAZIN
 70
     0
  9
$DIMDSEP
 70
    46
  9
$DIMATFIT
 70
     3
  9
$DIMFRAC
 70
     0
  9
$DIMLDRBLK
  1

  9
$DIMLUNIT
 70
     4
  9
$DIMLWD
 70
    -2
  9
$DIMLWE
 70
    -2
  9
$DIMTMOVE
 70
     0
  9
$DIMFXL
 40
1.0
  9
$DIMFXLON
 70
     0
  9
$DIMJOGANG
 40
0.7853981633974483
  9
$DIMTFILL
 70
     0
  9
$DIMTFILLCLR
 70
     0
  9
$DIMARCSYM
 70
     0
  9
$DIMLTYPE
  6

  9
$DIMLTEX1
  6

  9
$DIMLTEX2
  6

  9
$DIMTXTDIRECTION
 70
     0
  9
$LUNITS
 70
     4
  9
$LUPREC
 70
     4
  9
$SKETCHINC
 40
0.1
  9
$FILLETRAD
 40
0.0
  9
$AUNITS
 70
     0
  9
$AUPREC
 70
     0
  9
$MENU
  1
.
  9
$ELEVATION
 40
0.0
  9
$PELEVATION
 40
0.0
  9
$THICKNESS
 40
0.0
  9
$LIMCHECK
 70
     0
  9
$CHAMFERA
 40
0.0
  9
$CHAMFERB
 40
0.0
  9
$CHAMFERC
 40
0.0
  9
$CHAMFERD
 40
0.0
  9
$SKPOLY
 70
     0
  9
$TDCREATE
 40
2460852.446620370
  9
$TDUCREATE
 40
2460852.613287037
  9
$TDUPDATE
 40
2460852.446620370
  9
$TDUUPDATE
 40
2460852.613287037
  9
$TDINDWG
 40
0.0000000000
  9
$TDUSRTIMER
 40
0.0000000000
  9
$USRTIMER
 70
     1
  9
$ANGBASE
 50
0.0
  9
$ANGDIR
 70
     0
  9
$PDMODE
 70
     0
  9
$PDSIZE
 40
0.0
  9
$PLINEWID
 40
0.0
  9
$SPLFRAME
 70
     0
  9
$SPLINETYPE
 70
     6
  9
$SPLINESEGS
 70
     8
  9
$HANDSEED
  5
1B6
  9
$SURFTAB1
 70
     6
  9
$SURFTAB2
 70
     6
  9
$SURFTYPE
 70
     6
  9
$SURFU
 70
     6
  9
$SURFV
 70
     6
  9
$UCSBASE
  2

  9
$UCSNAME
  2

  9
$UCSORG
 10
0.0
 20
0.0
 30
0.0
  9
$UCSXDIR
 10
1.0
 20
0.0
 30
0.0
  9
$UCSYDIR
 10
0.0
 20
1.0
 30
0.0
  9
$UCSORTHOREF
  2

  9
$UCSORTHOVIEW
 70
     0
  9
$UCSORGTOP
 10
0.0
 20
0.0
 30
0.0
  9
$UCSORGBOTTOM
 10
0.0
 20
0.0
 30
0.0
  9
$UCSORGLEFT
 10
0.0
 20
0.0
 30
0.0
  9
$UCSORGRIGHT
 10
0.0
 20
0.0
 30
0.0
  9
$UCSORGFRONT
 10
0.0
 20
0.0
 30
0.0
  9
$UCSORGBACK
 10
0.0
 20
0.0
 30
0.0
  9
$PUCSBASE
  2

  9
$PUCSNAME
  2

  9
$PUCSORG
 10
0.0
 20
0.0
 30
0.0
  9
$PUCSXDIR
 10
1.0
 20
0.0
 30
0.0
  9
$PUCSYDIR
 10
0.0
 20
1.0
 30
0.0
  9
$PUCSORTHOREF
  2

  9
$PUCSORTHOVIEW
 70
     0
  9
$PUCSORGTOP
 10
0.0
 20
0.0
 30
0.0
  9
$PUCSORGBOTTOM
 10
0.0
 20
0.0
 30
0.0
  9
$PUCSORGLEFT
 10
0.0
 20
0.0
 30
0.0
  9
$PUCSORGRIGHT
 10
0.0
 20
0.0
 30
0.0
  9
$PUCSORGFRONT
 10
0.0
 20
0.0
 30
0.0
  9
$PUCSORGBACK
 10
0.0
 20
0.0
 30
0.0
  9
$USERI1
 70
     0
  9
$USERI2
 70
     0
  9
$USERI3
 70
     0
  9
$USERI4
 70
     0
  9
$USERI5
 70
     0
  9
$USERR1
 40
0.0
  9
$USERR2
 40
0.0
  9
$USERR3
 40
0.0
  9
$USERR4
 40
0.0
  9
$USERR5
 40
0.0
  9
$WORLDVIEW
 70
     1
  9
$SHADEDGE
 70
     3
  9
$SHADEDIF
 70
    70
  9
$TILEMODE
 70
     1
  9
$MAXACTVP
 70
    64
  9
$PINSBASE
 10
0.0
 20
0.0
 30
0.0
  9
$PLIMCHECK
 70
     0
  9
$PEXTMIN
 10
1.000000000000000E+20
 20
1.000000000000000E+20
 30
1.000000000000000E+20
  9
$PEXTMAX
 10
-1.000000000000000E+20
 20
-1.000000000000000E+20
 30
-1.000000000000000E+20
  9
$PLIMMIN
 10
0.0
 20
0.0
  9
$PLIMMAX
 10
12.0
 20
9.0
  9
$UNITMODE
 70
     0
  9
$VISRETAIN
 70
     1
  9
$PLINEGEN
 70
     0
  9
$PSLTSCALE
 70
     1
  9
$TREEDEPTH
 70
  3020
  9
$CMLSTYLE
  2
Standard
  9
$CMLJUST
 70
     0
  9
$CMLSCALE
 40
1.0
  9
$PROXYGRAPHICS
 70
     1
  9
$MEASUREMENT
 70
     0
  9
$CELWEIGHT
370
    -1
  9
$ENDCAPS
280
     0
  9
$JOINSTYLE
280
     0
  9
$LWDISPLAY
290
     0
  9
$INSUNITS
 70
     1
  9
$HYPERLINKBASE
  1

  9
$STYLESHEET
  1

  9
$XEDIT
290
     1
  9
$CEPSNTYPE
380
     0
  9
$PSTYLEMODE
290
     1
  9
$FINGERPRINTGUID
  2
{CCC06B97-3625-C947-9EDE-B3CDD6014EEF}
  9
$VERSIONGUID
  2
{D433EDD1-ABF8-9F4C-A901-46170B4E9DAE}
  9
$EXTNAMES
290
     1
  9
$PSVPSCALE
 40
0.0
  9
$OLESTARTUP
290
     0
  9
$SORTENTS
280
   127
  9
$INDEXCTL
280
     0
  9
$HIDETEXT
280
     1
  9
$XCLIPFRAME
280
     2
  9
$HALOGAP
280
     0
  9
$OBSCOLOR
 70
   257
  9
$OBSLTYPE
280
     0
  9
$INTERSECTIONDISPLAY
280
     0
  9
$INTERSECTIONCOLOR
 70
   257
  9
$DIMASSOC
280
     2
  9
$PROJECTNAME
  1

  9
$CAMERADISPLAY
290
     0
  9
$LENSLENGTH
 40
50.0
  9
$CAMERAHEIGHT
 40
0.0
  9
$STEPSPERSEC
 40
2.0
  9
$STEPSIZE
 40
6.0
  9
$3DDWFPREC
 40
2.0
  9
$PSOLWIDTH
 40
0.25
  9
$PSOLHEIGHT
 40
4.0
  9
$LOFTANG1
 40
1.570796326794896
  9
$LOFTANG2
 40
1.570796326794896
  9
$LOFTMAG1
 40
0.0
  9
$LOFTMAG2
 40
0.0
  9
$LOFTPARAM
 70
     7
  9
$LOFTNORMALS
280
     1
  9
$LATITUDE
 40
0.0
  9
$LONGITUDE
 40
0.0
  9
$NORTHDIRECTION
 40
0.0
  9
$TIMEZONE
 70
     0
  9
$LIGHTGLYPHDISPLAY
280
     1
  9
$TILEMODELIGHTSYNCH
280
     1
  9
$CMATERIAL
347
11
  9
$SOLIDHIST
280
     0
  9
$SHOWHIST
280
     1
  9
$DWFFRAME
280
     2
  9
$DGNFRAME
280
     0
  9
$REALWORLDSCALE
290
     1
  9
$INTERFERECOLOR
 62
     1
  9
$INTERFEREOBJVS
345
33
  9
$INTERFEREVPVS
346
30
  9
$CSHADOW
280
     0
  9
$SHADOWPLANELOCATION
 40
0.0
  0
ENDSEC
  0
SECTION
  2
CLASSES
  0
CLASS
  1
ACDBDICTIONARYWDFLT
  2
AcDbDictionaryWithDefault
  3
ObjectDBX Classes
 90
        0
 91
        1
280
     0
281
     0
  0
CLASS
  1
MATERIAL
  2
AcDbMaterial
  3
ObjectDBX Classes
 90
     1153
 91
        3
280
     0
281
     0
  0
CLASS
  1
VISUALSTYLE
  2
AcDbVisualStyle
  3
ObjectDBX Classes
 90
     4095
 91
       24
280
     0
281
     0
  0
CLASS
  1
SCALE
  2
AcDbScale
  3
ObjectDBX Classes
 90
     1153
 91
       17
280
     0
281
     0
  0
CLASS
  1
TABLESTYLE
  2
AcDbTableStyle
  3
ObjectDBX Classes
 90
     4095
 91
        1
280
     0
281
     0
  0
CLASS
  1
MLEADERSTYLE
  2
AcDbMLeaderStyle
  3
ACDB_MLEADERSTYLE_CLASS
 90
     4095
 91
        1
280
     0
281
     0
  0
CLASS
  1
ACDBSECTIONVIEWSTYLE
  2
AcDbSectionViewStyle
  3
ObjectDBX Classes
 90
     1025
 91
        1
280
     0
281
     0
  0
CLASS
  1
ACDBDETAILVIEWSTYLE
  2
AcDbDetailViewStyle
  3
ObjectDBX Classes
 90
     1025
 91
        1
280
     0
281
     0
  0
CLASS
  1
RASTERVARIABLES
  2
AcDbRasterVariables
  3
ISM
 90
        0
 91
        1
280
     0
281
     0
  0
CLASS
  1
DICTIONARYVAR
  2
AcDbDictionaryVar
  3
ObjectDBX Classes
 90
        0
 91
        5
280
     0
281
     0
  0
CLASS
  1
CELLSTYLEMAP
  2
AcDbCellStyleMap
  3
ObjectDBX Classes
 90
     1152
 91
        2
280
     0
281
     0
  0
CLASS
  1
SORTENTSTABLE
  2
AcDbSortentsTable
  3
ObjectDBX Classes
 90
        0
 91
        1
280
     0
281
     0
  0
CLASS
  1
SUN
  2
AcDbSun
  3
SCENEOE
 90
     1153
 91
        1
280
     0
281
     0
  0
ENDSEC
  0
SECTION
  2
TABLES
  0
TABLE
  2
VPORT
  5
8
330
0
100
AcDbSymbolTable
 70
     1
  0
VPORT
  5
57
330
8
100
AcDbSymbolTableRecord
100
AcDbViewportTableRecord
  2
*Active
 70
     0
 10
0.0
 20
0.0
 11
1.0
 21
1.0
 12
505.9173298480727
 22
-37.61101993337593
 13
0.0
 23
0.0
 14
1.0
 24
1.0
 15
0.0
 25
0.0
 16
0.0
 26
0.0
 36
1.0
 17
0.0
 27
0.0
 37
0.0
 40
376.436636683385
 41
1.357327515303764
 42
50.0
 43
0.0
 44
0.0
 50
0.0
 51
0.0
 71
     0
 72
  1000
 73
     1
 74
     1
 75
     0
 76
     0
 77
     0
 78
     0
281
     0
 65
     1
110
0.0
120
0.0
130
0.0
111
1.0
121
0.0
131
0.0
112
0.0
122
1.0
132
0.0
 79
     0
146
0.0
 60
     3
 61
     5
292
     1
282
     1
141
0.0
142
0.0
 63
   250
421
  3355443
361
1B2
  0
ENDTAB
  0
TABLE
  2
LTYPE
  5
5
330
0
100
AcDbSymbolTable
 70
     1
  0
LTYPE
  5
5B
330
5
100
AcDbSymbolTableRecord
100
AcDbLinetypeTableRecord
  2
ByBlock
 70
     0
  3

 72
    65
 73
     0
 40
0.0
  0
LTYPE
  5
5C
330
5
100
AcDbSymbolTableRecord
100
AcDbLinetypeTableRecord
  2
ByLayer
 70
     0
  3

 72
    65
 73
     0
 40
0.0
  0
LTYPE
  5
5D
330
5
100
AcDbSymbolTableRecord
100
AcDbLinetypeTableRecord
  2
Continuous
 70
     0
  3
Solid line
 72
    65
 73
     0
 40
0.0
  0
ENDTAB
  0
TABLE
  2
LAYER
  5
2
330
0
100
AcDbSymbolTable
 70
     6
  0
LAYER
  5
54
330
2
100
AcDbSymbolTableRecord
100
AcDbLayerTableRecord
  2
0
 70
     0
 62
     7
  6
Continuous
370
    -3
390
F
347
21
348
0
  0
LAYER
  5
85
330
2
100
AcDbSymbolTableRecord
100
AcDbLayerTableRecord
  2
A-DETL-GENF
 70
     0
 62
    92
  6
Continuous
370
     9
390
F
347
21
348
0
  0
LAYER
  5
8A
330
2
100
AcDbSymbolTableRecord
100
AcDbLayerTableRecord
  2
A-DETL-MEDM
 70
     0
 62
    33
  6
Continuous
370
    30
390
F
347
21
348
0
  0
LAYER
  5
CB
330
2
100
AcDbSymbolTableRecord
100
AcDbLayerTableRecord
  2
A-DETL-THIN
 70
     0
 62
   151
  6
Continuous
370
     9
390
F
347
21
348
0
  0
LAYER
  5
16A
330
2
100
AcDbSymbolTableRecord
100
AcDbLayerTableRecord
  2
G-ANNO-TEXT
 70
     0
 62
   231
  6
Continuous
370
     9
390
F
347
21
348
0
  0
ENDTAB
  0
TABLE
  2
STYLE
  5
3
330
0
100
AcDbSymbolTable
 70
     3
  0
STYLE
  5
55
330
3
100
AcDbSymbolTableRecord
100
AcDbTextStyleTableRecord
  2
Standard
 70
     0
 40
0.0
 41
1.0
 50
0.0
 71
     0
 42
0.2
  3
txt
  4

  0
STYLE
  5
5A
330
3
100
AcDbSymbolTableRecord
100
AcDbTextStyleTableRecord
  2
Annotative
 70
     0
 40
0.0
 41
1.0
 50
0.0
 71
     0
 42
0.2
  3
txt
  4

1001
AcadAnnotative
1000
AnnotativeData
1002
{
1070
     1
1070
     1
1002
}
  0
STYLE
  5
16B
330
3
100
AcDbSymbolTableRecord
100
AcDbTextStyleTableRecord
  2
RomanD_B
 70
     0
 40
5.25
 41
1.0
 50
0.0
 71
     0
 42
0.2
  3

  4

1001
ACAD
1000
RomanD
1071
 33554434
  0
ENDTAB
  0
TABLE
  2
VIEW
  5
6
330
0
100
AcDbSymbolTable
 70
     0
  0
ENDTAB
  0
TABLE
  2
UCS
  5
7
330
0
100
AcDbSymbolTable
 70
     0
  0
ENDTAB
  0
TABLE
  2
APPID
  5
9
330
0
100
AcDbSymbolTable
 70
     3
  0
APPID
  5
56
330
9
100
AcDbSymbolTableRecord
100
AcDbRegAppTableRecord
  2
ACAD
 70
     0
  0
APPID
  5
5E
330
9
100
AcDbSymbolTableRecord
100
AcDbRegAppTableRecord
  2
AcadAnnotative
 70
     0
  0
APPID
  5
78
330
9
100
AcDbSymbolTableRecord
100
AcDbRegAppTableRecord
  2
REVIT
 70
     0
  0
ENDTAB
  0
TABLE
  2
DIMSTYLE
  5
A
330
0
100
AcDbSymbolTable
 70
     2
100
AcDbDimStyleTable
 71
     0
  0
DIMSTYLE
105
58
330
A
100
AcDbSymbolTableRecord
100
AcDbDimStyleTableRecord
  2
Standard
 70
     0
340
55
  0
DIMSTYLE
105
59
330
A
100
AcDbSymbolTableRecord
100
AcDbDimStyleTableRecord
  2
Annotative
 70
     0
340
55
1001
AcadAnnotative
1000
AnnotativeData
1002
{
1070
     1
1070
     1
1002
}
  0
ENDTAB
  0
TABLE
  2
BLOCK_RECORD
  5
1
330
0
100
AcDbSymbolTable
 70
     1
  0
BLOCK_RECORD
  5
70
102
{ACAD_XDICTIONARY
360
1AF
102
}
330
1
100
AcDbSymbolTableRecord
100
AcDbBlockTableRecord
  2
*Model_Space
340
73
 70
     0
280
     1
281
     0
  0
BLOCK_RECORD
  5
6C
330
1
100
AcDbSymbolTableRecord
100
AcDbBlockTableRecord
  2
*Paper_Space
340
6F
 70
     0
280
     1
281
     0
  0
BLOCK_RECORD
  5
74
330
1
100
AcDbSymbolTableRecord
100
AcDbBlockTableRecord
  2
*Paper_Space0
340
77
 70
     0
280
     1
281
     0
  0
ENDTAB
  0
ENDSEC
  0
SECTION
  2
BLOCKS
  0
BLOCK
  5
71
330
70
100
AcDbEntity
  8
0
100
AcDbBlockBegin
  2
*Model_Space
 70
     0
 10
0.0
 20
0.0
 30
0.0
  3
*Model_Space
  1

  0
ENDBLK
  5
72
330
70
100
AcDbEntity
  8
0
100
AcDbBlockEnd
  0
BLOCK
  5
6D
330
6C
100
AcDbEntity
 67
     1
  8
0
100
AcDbBlockBegin
  2
*Paper_Space
 70
     0
 10
0.0
 20
0.0
 30
0.0
  3
*Paper_Space
  1

  0
ENDBLK
  5
6E
330
6C
100
AcDbEntity
 67
     1
  8
0
100
AcDbBlockEnd
  0
BLOCK
  5
75
330
74
100
AcDbEntity
 67
     1
  8
0
100
AcDbBlockBegin
  2
*Paper_Space0
 70
     0
 10
0.0
 20
0.0
 30
0.0
  3
*Paper_Space0
  1

  0
ENDBLK
  5
76
330
74
100
AcDbEntity
 67
     1
  8
0
100
AcDbBlockEnd
  0
ENDSEC
  0
SECTION
  2
ENTITIES
  0
HATCH
  5
89
330
70
100
AcDbEntity
  8
A-DETL-GENF
 62
     7
100
AcDbHatch
 10
0.0
 20
0.0
 30
0.0
210
0.0
220
0.0
230
1.0
  2
SOLID
 70
     1
 71
     0
 91
        1
 92
        1
 93
        3
 72
     1
 10
348.1938432012991
 20
136.16139031203
 11
357.1104005278658
 21
136.16139031203
 72
     1
 10
357.1104005278658
 20
136.16139031203
 11
352.693843201299
 21
150.6072984083165
 72
     1
 10
352.693843201299
 20
150.6072984083165
 11
348.1938432012991
 21
136.16139031203
 97
        0
 75
     0
 76
     1
 98
        1
 10
0.0
 20
0.0
450
        0
451
        0
460
0.0
461
0.0
452
        0
462
0.0
453
        0
470

1001
REVIT
1002
{
1070
     1
1000
1650638
1002
}
1002
{
1070
     5
1000
23064
1002
}
1002
{
1070
     2
1000
-2002000
1002
}
  0
ARC
  5
8B
330
70
100
AcDbEntity
  8
A-DETL-MEDM
100
AcDbCircle
 10
331.9092335104713
 20
-32.84493143243903
 30
0.0
 40
20.78460969082638
100
AcDbArc
 50
179.9999999999998
 51
239.9999999999979
1001
REVIT
1002
{
1070
     1
1000
1650336
1002
}
1002
{
1070
     2
1000
-2000051
1002
}
1002
{
1070
     3
1000
-2000043
1002
}
  0
ARC
  5
8C
330
70
100
AcDbEntity
  8
A-DETL-MEDM
100
AcDbCircle
 10
373.4784528921247
 20
-32.84493143243905
 30
0.0
 40
20.78460969082628
100
AcDbArc
 50
299.9999999999984
 51
359.9999999999996
1001
REVIT
1002
{
1070
     1
1000
1650337
1002
}
1002
{
1070
     2
1000
-2000051
1002
}
1002
{
1070
     3
1000
-2000043
1002
}
  0
ARC
  5
8D
330
70
100
AcDbEntity
  8
A-DETL-MEDM
100
AcDbCircle
 10
352.6938432012983
 20
3.155068567560789
 30
0.0
 40
62.35382907247991
100
AcDbArc
 50
239.9999999999985
 51
299.9999999999992
1001
REVIT
1002
{
1070
     1
1000
1650338
1002
}
1002
{
1070
     2
1000
-2000051
1002
}
1002
{
1070
     3
1000
-2000043
1002
}
  0
LINE
  5
8E
330
70
100
AcDbEntity
  8
A-DETL-MEDM
100
AcDbLine
 10
311.124623819645
 20
-32.84493143243899
 30
0.0
 11
311.1246238196452
 21
92.1172560347219
 31
0.0
1001
REVIT
1002
{
1070
     1
1000
1650339
1002
}
1002
{
1070
     2
1000
-2000051
1002
}
1002
{
1070
     3
1000
-2000043
1002
}
  0
LINE
  5
8F
330
70
100
AcDbEntity
  8
A-DETL-MEDM
100
AcDbLine
 10
394.263062582951
 20
-32.84493143243909
 30
0.0
 11
394.2630625829512
 21
92.11725603472183
 31
0.0
1001
REVIT
1002
{
1070
     1
1000
1650340
1002
}
1002
{
1070
     2
1000
-2000051
1002
}
1002
{
1070
     3
1000
-2000043
1002
}
  0
ARC
  5
90
330
70
100
AcDbEntity
  8
A-DETL-MEDM
100
AcDbCircle
 10
332.5327718011964
 20
92.11725603472221
 30
0.0
 40
20.16107140010158
100
AcDbArc
 50
119.9999999999997
 51
239.9999999999976
1001
REVIT
1002
{
1070
     1
1000
1650341
1002
}
1002
{
1070
     2
1000
-2000051
1002
}
1002
{
1070
     3
1000
-2000043
1002
}
  0
ARC
  5
91
330
70
100
AcDbEntity
  8
A-DETL-MEDM
100
AcDbCircle
 10
372.8549146014
 20
92.11725603472217
 30
0.0
 40
20.16107140010155
100
AcDbArc
 50
299.9999999999982
 51
60.0000000000005
1001
REVIT
1002
{
1070
     1
1000
1650342
1002
}
1002
{
1070
     2
1000
-2000051
1002
}
1002
{
1070
     3
1000
-2000043
1002
}
  0
ARC
  5
92
330
70
100
AcDbEntity
  8
A-DETL-MEDM
100
AcDbCircle
 10
352.6938432012985
 20
127.037256034722
 30
0.0
 40
60.48321420030559
100
AcDbArc
 50
239.9999999999984
 51
299.9999999999992
1001
REVIT
1002
{
1070
     1
1000
1650343
1002
}
1002
{
1070
     2
1000
-2000051
1002
}
1002
{
1070
     3
1000
-2000043
1002
}
  0
ARC
  5
93
330
70
100
AcDbEntity
  8
A-DETL-MEDM
100
AcDbCircle
 10
352.6938432012983
 20
57.19725603472145
 30
0.0
 40
60.48321420030557
100
AcDbArc
 50
60.00000000000047
 51
119.9999999999998
1001
REVIT
1002
{
1070
     1
1000
1650344
1002
}
1002
{
1070
     2
1000
-2000051
1002
}
1002
{
1070
     3
1000
-2000043
1002
}
  0
ARC
  5
94
330
70
100
AcDbEntity
  8
A-DETL-MEDM
100
AcDbCircle
 10
330.2425668438049
 20
-32.84493143243999
 30
0.0
 40
22.45127635749345
100
AcDbArc
 50
181.2761082232081
 51
239.9999999999983
1001
REVIT
1002
{
1070
     1
1000
1650345
1002
}
1002
{
1070
     2
1000
-2000051
1002
}
1002
{
1070
     3
1000
-2000043
1002
}
  0
ARC
  5
95
330
70
100
AcDbEntity
  8
A-DETL-MEDM
100
AcDbCircle
 10
375.1451195587911
 20
-32.84493143244014
 30
0.0
 40
22.45127635749369
100
AcDbArc
 50
327.3411968849714
 51
31.62149007323215
1001
REVIT
1002
{
1070
     1
1000
1650346
1002
}
1002
{
1070
     2
1000
-2000051
1002
}
1002
{
1070
     3
1000
-2000043
1002
}
  0
ARC
  5
96
330
70
100
AcDbEntity
  8
A-DETL-MEDM
100
AcDbCircle
 10
352.6938432012981
 20
6.041819913508473
 30
0.0
 40
67.35382907247978
100
AcDbArc
 50
239.9999999999993
 51
299.9999999999987
1001
REVIT
1002
{
1070
     1
1000
1650347
1002
}
1002
{
1070
     2
1000
-2000051
1002
}
1002
{
1070
     3
1000
-2000043
1002
}
  0
ARC
  5
97
330
70
100
AcDbEntity
  8
A-DETL-MEDM
100
AcDbCircle
 10
330.2425668438049
 20
-33.84493143243999
 30
0.0
 40
22.45127635749351
100
AcDbArc
 50
148.3785099267686
 51
239.9999999999983
1001
REVIT
1002
{
1070
     1
1000
1650348
1002
}
1002
{
1070
     2
1000
-2000051
1002
}
1002
{
1070
     3
1000
-2000043
1002
}
  0
ARC
  5
98
330
70
100
AcDbEntity
  8
A-DETL-MEDM
100
AcDbCircle
 10
375.1451195587911
 20
-33.84493143244013
 30
0.0
 40
22.45127635749368
100
AcDbArc
 50
331.5503959815297
 51
1.276108223208883
1001
REVIT
1002
{
1070
     1
1000
1650349
1002
}
1002
{
1070
     2
1000
-2000051
1002
}
1002
{
1070
     3
1000
-2000043
1002
}
  0
ARC
  5
99
330
70
100
AcDbEntity
  8
A-DETL-MEDM
100
AcDbCircle
 10
352.6938432012981
 20
5.041819913508478
 30
0.0
 40
67.35382907247978
100
AcDbArc
 50
239.9999999999993
 51
299.9999999999992
1001
REVIT
1002
{
1070
     1
1000
1650350
1002
}
1002
{
1070
     2
1000
-2000051
1002
}
1002
{
1070
     3
1000
-2000043
1002
}
  0
LINE
  5
9A
330
70
100
AcDbEntity
  8
A-DETL-MEDM
100
AcDbLine
 10
367.2850363436435
 20
-60.71253639394523
 30
0.0
 11
405.9330473289725
 21
-99.36054737927449
 31
0.0
1001
REVIT
1002
{
1070
     1
1000
1650351
1002
}
1002
{
1070
     2
1000
-2000051
1002
}
1002
{
1070
     3
1000
-2000043
1002
}
  0
LINE
  5
9B
330
70
100
AcDbEntity
  8
A-DETL-MEDM
100
AcDbLine
 10
404.6830473289725
 20
-98.6388595427875
 30
0.0
 11
404.6830473289725
 21
-100.7062357824131
 31
0.0
1001
REVIT
1002
{
1070
     1
1000
1650352
1002
}
1002
{
1070
     2
1000
-2000051
1002
}
1002
{
1070
     3
1000
-2000043
1002
}
  0
LINE
  5
9C
330
70
100
AcDbEntity
  8
A-DETL-MEDM
100
AcDbLine
 10
404.6830473289725
 20
-100.7062357824131
 30
0.0
 11
413.3433013668169
 21
-105.7062357824131
 31
0.0
1001
REVIT
1002
{
1070
     1
1000
1650353
1002
}
1002
{
1070
     2
1000
-2000051
1002
}
1002
{
1070
     3
1000
-2000043
1002
}
  0
LINE
  5
9D
330
70
100
AcDbEntity
  8
A-DETL-MEDM
100
AcDbLine
 10
413.3433013668169
 20
-105.7062357824131
 30
0.0
 11
413.3433013668169
 21
-84.70623578241314
 31
0.0
1001
REVIT
1002
{
1070
     1
1000
1650354
1002
}
1002
{
1070
     2
1000
-2000051
1002
}
1002
{
1070
     3
1000
-2000043
1002
}
  0
LINE
  5
9E
330
70
100
AcDbEntity
  8
A-DETL-MEDM
100
AcDbLine
 10
413.3433013668169
 20
-84.70623578241314
 30
0.0
 11
404.6830473289725
 21
-79.70623578241312
 31
0.0
1001
REVIT
1002
{
1070
     1
1000
1650355
1002
}
1002
{
1070
     2
1000
-2000051
1002
}
1002
{
1070
     3
1000
-2000043
1002
}
  0
LINE
  5
9F
330
70
100
AcDbEntity
  8
A-DETL-MEDM
100
AcDbLine
 10
404.6830473289725
 20
-79.70623578241312
 30
0.0
 11
404.6830473289725
 21
-81.77038657177551
 31
0.0
1001
REVIT
1002
{
1070
     1
1000
1650356
1002
}
1002
{
1070
     2
1000
-2000051
1002
}
1002
{
1070
     3
1000
-2000043
1002
}
  0
LINE
  5
A0
330
70
100
AcDbEntity
  8
A-DETL-MEDM
100
AcDbLine
 10
414.2093267706014
 20
-84.20623578241315
 30
0.0
 11
414.2093267706014
 21
-105.2062357824131
 31
0.0
1001
REVIT
1002
{
1070
     1
1000
1650357
1002
}
1002
{
1070
     2
1000
-2000051
1002
}
1002
{
1070
     3
1000
-2000043
1002
}
  0
LINE
  5
A1
330
70
100
AcDbEntity
  8
A-DETL-MEDM
100
AcDbLine
 10
413.3433013668169
 20
-105.7062357824131
 30
0.0
 11
414.2093267706014
 21
-105.2062357824131
 31
0.0
1001
REVIT
1002
{
1070
     1
1000
1650358
1002
}
1002
{
1070
     2
1000
-2000051
1002
}
1002
{
1070
     3
1000
-2000043
1002
}
  0
LINE
  5
A2
330
70
100
AcDbEntity
  8
A-DETL-MEDM
100
AcDbLine
 10
414.2093267706014
 20
-84.20623578241315
 30
0.0
 11
405.549072732757
 21
-79.20623578241313
 31
0.0
1001
REVIT
1002
{
1070
     1
1000
1650359
1002
}
1002
{
1070
     2
1000
-2000051
1002
}
1002
{
1070
     3
1000
-2000043
1002
}
  0
LINE
  5
A3
330
70
100
AcDbEntity
  8
A-DETL-MEDM
100
AcDbLine
 10
404.6830473289725
 20
-79.70623578241312
 30
0.0
 11
405.549072732757
 21
-79.20623578241315
 31
0.0
1001
REVIT
1002
{
1070
     1
1000
1650360
1002
}
1002
{
1070
     2
1000
-2000051
1002
}
1002
{
1070
     3
1000
-2000043
1002
}
  0
ARC
  5
A4
330
70
100
AcDbEntity
  8
A-DETL-MEDM
100
AcDbCircle
 10
331.0759001771373
 20
-42.9015557594655
 30
0.0
 40
21.61794302416009
100
AcDbArc
 50
178.5403712483274
 51
239.9999999999979
1001
REVIT
1002
{
1070
     1
1000
1650361
1002
}
1002
{
1070
     2
1000
-2000051
1002
}
1002
{
1070
     3
1000
-2000043
1002
}
  0
ARC
  5
A5
330
70
100
AcDbEntity
  8
A-DETL-MEDM
100
AcDbCircle
 10
374.3117862254578
 20
-42.90155575946563
 30
0.0
 40
21.61794302416025
100
AcDbArc
 50
299.9999999999985
 51
345.9720238702983
1001
REVIT
1002
{
1070
     1
1000
1650362
1002
}
1002
{
1070
     2
1000
-2000051
1002
}
1002
{
1070
     3
1000
-2000043
1002
}
  0
ARC
  5
A6
330
70
100
AcDbEntity
  8
A-DETL-MEDM
100
AcDbCircle
 10
352.6938432012976
 20
-5.458180086490945
 30
0.0
 40
64.85382907248035
100
AcDbArc
 50
239.9999999999989
 51
288.3131378496832
1001
REVIT
1002
{
1070
     1
1000
1650363
1002
}
1002
{
1070
     2
1000
-2000051
1002
}
1002
{
1070
     3
1000
-2000043
1002
}
  0
ARC
  5
A7
330
70
100
AcDbEntity
  8
A-DETL-MEDM
100
AcDbCircle
 10
352.6938432012977
 20
-5.458180086491212
 30
0.0
 40
64.85382907248055
100
AcDbArc
 50
299.6214153252389
 51
299.9999999999992
1001
REVIT
1002
{
1070
     1
1000
1650364
1002
}
1002
{
1070
     2
1000
-2000051
1002
}
1002
{
1070
     3
1000
-2000043
1002
}
  0
LINE
  5
A8
330
70
100
AcDbEntity
  8
A-DETL-MEDM
100
AcDbLine
 10
407.2811235403259
 20
-88.15704195206762
 30
0.0
 11
410.7452251554637
 21
-90.1570419520676
 31
0.0
1001
REVIT
1002
{
1070
     1
1000
1650365
1002
}
1002
{
1070
     2
1000
-2000051
1002
}
1002
{
1070
     3
1000
-2000043
1002
}
  0
LINE
  5
A9
330
70
100
AcDbEntity
  8
A-DETL-MEDM
100
AcDbLine
 10
410.7452251554637
 20
-90.1570419520676
 30
0.0
 11
410.7452251554637
 21
-94.15704195206764
 31
0.0
1001
REVIT
1002
{
1070
     1
1000
1650366
1002
}
1002
{
1070
     2
1000
-2000051
1002
}
1002
{
1070
     3
1000
-2000043
1002
}
  0
LINE
  5
AA
330
70
100
AcDbEntity
  8
A-DETL-MEDM
100
AcDbLine
 10
311.1246238196447
 20
-157.8071188996001
 30
0.0
 11
311.1246238196449
 21
-51.22513866004354
 31
0.0
1001
REVIT
1002
{
1070
     1
1000
1650373
1002
}
1002
{
1070
     2
1000
-2000051
1002
}
1002
{
1070
     3
1000
-2000043
1002
}
  0
LINE
  5
AB
330
70
100
AcDbEntity
  8
A-DETL-MEDM
100
AcDbLine
 10
394.2630625829508
 20
-157.8071188996002
 30
0.0
 11
394.2630625829508
 21
-87.69056263325277
 31
0.0
1001
REVIT
1002
{
1070
     1
1000
1650374
1002
}
1002
{
1070
     2
1000
-2000051
1002
}
1002
{
1070
     3
1000
-2000043
1002
}
  0
ARC
  5
AC
330
70
100
AcDbEntity
  8
A-DETL-MEDM
100
AcDbCircle
 10
331.9092335104711
 20
-157.8071188996002
 30
0.0
 40
20.78460969082636
100
AcDbArc
 50
180.0
 51
239.9999999999975
1001
REVIT
1002
{
1070
     1
1000
1650375
1002
}
1002
{
1070
     2
1000
-2000051
1002
}
1002
{
1070
     3
1000
-2000043
1002
}
  0
ARC
  5
AD
330
70
100
AcDbEntity
  8
A-DETL-MEDM
100
AcDbCircle
 10
373.4784528921245
 20
-157.8071188996002
 30
0.0
 40
20.7846096908263
100
AcDbArc
 50
299.9999999999984
 51
0.0
1001
REVIT
1002
{
1070
     1
1000
1650376
1002
}
1002
{
1070
     2
1000
-2000051
1002
}
1002
{
1070
     3
1000
-2000043
1002
}
  0
ARC
  5
AE
330
70
100
AcDbEntity
  8
A-DETL-MEDM
100
AcDbCircle
 10
352.6938432012981
 20
-121.8071188996004
 30
0.0
 40
62.35382907247996
100
AcDbArc
 50
239.9999999999985
 51
299.9999999999992
1001
REVIT
1002
{
1070
     1
1000
1650377
1002
}
1002
{
1070
     2
1000
-2000051
1002
}
1002
{
1070
     3
1000
-2000043
1002
}
  0
LINE
  5
AF
330
70
100
AcDbEntity
  8
A-DETL-MEDM
100
AcDbLine
 10
414.2093267706014
 20
-43.31960382353876
 30
0.0
 11
405.549072732757
 21
-38.31960382353875
 31
0.0
1001
REVIT
1002
{
1070
     1
1000
1650384
1002
}
1002
{
1070
     2
1000
-2000051
1002
}
1002
{
1070
     3
1000
-2000043
1002
}
  0
LINE
  5
B0
330
70
100
AcDbEntity
  8
A-DETL-MEDM
100
AcDbLine
 10
414.2093267706014
 20
-43.31960382353876
 30
0.0
 11
414.2093267706014
 21
-64.31960382353874
 31
0.0
1001
REVIT
1002
{
1070
     1
1000
1650388
1002
}
1002
{
1070
     2
1000
-2000051
1002
}
1002
{
1070
     3
1000
-2000043
1002
}
  0
LINE
  5
B1
330
70
100
AcDbEntity
  8
A-DETL-MEDM
100
AcDbLine
 10
413.3433013668171
 20
-64.81960382353875
 30
0.0
 11
414.2093267706014
 21
-64.31960382353874
 31
0.0
1001
REVIT
1002
{
1070
     1
1000
1650389
1002
}
1002
{
1070
     2
1000
-2000051
1002
}
1002
{
1070
     3
1000
-2000043
1002
}
  0
LINE
  5
B2
330
70
100
AcDbEntity
  8
A-DETL-MEDM
100
AcDbLine
 10
410.7452251554637
 20
-90.1570419520676
 30
0.0
 11
410.0957061026253
 21
-90.53204195206761
 31
0.0
1001
REVIT
1002
{
1070
     1
1000
1650367
1002
}
1002
{
1070
     2
1000
-2000051
1002
}
1002
{
1070
     3
1000
-2000043
1002
}
  0
LINE
  5
B3
330
70
100
AcDbEntity
  8
A-DETL-MEDM
100
AcDbLine
 10
410.0957061026253
 20
-90.53204195206761
 30
0.0
 11
406.6316044874875
 21
-88.53204195206764
 31
0.0
1001
REVIT
1002
{
1070
     1
1000
1650368
1002
}
1002
{
1070
     2
1000
-2000051
1002
}
1002
{
1070
     3
1000
-2000043
1002
}
  0
LINE
  5
B4
330
70
100
AcDbEntity
  8
A-DETL-MEDM
100
AcDbLine
 10
406.6316044874875
 20
-88.53204195206764
 30
0.0
 11
406.6316044874875
 21
-92.5320419520677
 31
0.0
1001
REVIT
1002
{
1070
     1
1000
1650369
1002
}
1002
{
1070
     2
1000
-2000051
1002
}
1002
{
1070
     3
1000
-2000043
1002
}
  0
LINE
  5
B5
330
70
100
AcDbEntity
  8
A-DETL-MEDM
100
AcDbLine
 10
406.6316044874875
 20
-92.5320419520677
 30
0.0
 11
410.0957061026253
 21
-94.53204195206767
 31
0.0
1001
REVIT
1002
{
1070
     1
1000
1650370
1002
}
1002
{
1070
     2
1000
-2000051
1002
}
1002
{
1070
     3
1000
-2000043
1002
}
  0
LINE
  5
B6
330
70
100
AcDbEntity
  8
A-DETL-MEDM
100
AcDbLine
 10
410.0957061026253
 20
-90.53204195206761
 30
0.0
 11
410.0957061026253
 21
-94.53204195206767
 31
0.0
1001
REVIT
1002
{
1070
     1
1000
1650371
1002
}
1002
{
1070
     2
1000
-2000051
1002
}
1002
{
1070
     3
1000
-2000043
1002
}
  0
LINE
  5
B7
330
70
100
AcDbEntity
  8
A-DETL-MEDM
100
AcDbLine
 10
410.0957061026253
 20
-94.53204195206767
 30
0.0
 11
410.7452251554637
 21
-94.15704195206764
 31
0.0
1001
REVIT
1002
{
1070
     1
1000
1650372
1002
}
1002
{
1070
     2
1000
-2000051
1002
}
1002
{
1070
     3
1000
-2000043
1002
}
  0
LINE
  5
B8
330
70
100
AcDbEntity
  8
A-DETL-MEDM
100
AcDbLine
 10
394.2630625829508
 20
-66.97748131619355
 30
0.0
 11
394.263062582951
 21
-51.22513866004253
 31
0.0
1001
REVIT
1002
{
1070
     1
1000
1650378
1002
}
1002
{
1070
     2
1000
-2000051
1002
}
1002
{
1070
     3
1000
-2000043
1002
}
  0
LINE
  5
B9
330
70
100
AcDbEntity
  8
A-DETL-MEDM
100
AcDbLine
 10
394.046826867629
 20
-44.96042857005593
 30
0.0
 11
405.549072732757
 21
-38.31960382353874
 31
0.0
1001
REVIT
1002
{
1070
     1
1000
1650379
1002
}
1002
{
1070
     2
1000
-2000051
1002
}
1002
{
1070
     3
1000
-2000043
1002
}
  0
LINE
  5
BA
330
70
100
AcDbEntity
  8
A-DETL-MEDM
100
AcDbLine
 10
385.4972441074886
 20
-52.78398377596583
 30
0.0
 11
407.1836535051302
 21
-40.26332947248051
 31
0.0
1001
REVIT
1002
{
1070
     1
1000
1650380
1002
}
1002
{
1070
     2
1000
-2000051
1002
}
1002
{
1070
     3
1000
-2000043
1002
}
  0
LINE
  5
BB
330
70
100
AcDbEntity
  8
A-DETL-MEDM
100
AcDbLine
 10
386.3707577375375
 20
-53.28830710541419
 30
0.0
 11
404.6830473289727
 21
-42.71570178032074
 31
0.0
1001
REVIT
1002
{
1070
     1
1000
1650381
1002
}
1002
{
1070
     2
1000
-2000051
1002
}
1002
{
1070
     3
1000
-2000043
1002
}
  0
LINE
  5
BC
330
70
100
AcDbEntity
  8
A-DETL-MEDM
100
AcDbLine
 10
404.6830473289727
 20
-59.81960382353875
 30
0.0
 11
413.3433013668171
 21
-64.81960382353875
 31
0.0
1001
REVIT
1002
{
1070
     1
1000
1650402
1002
}
1002
{
1070
     2
1000
-2000051
1002
}
1002
{
1070
     3
1000
-2000043
1002
}
  0
LINE
  5
BD
330
70
100
AcDbEntity
  8
A-DETL-MEDM
100
AcDbLine
 10
413.3433013668171
 20
-64.81960382353875
 30
0.0
 11
413.3433013668171
 21
-43.81960382353873
 31
0.0
1001
REVIT
1002
{
1070
     1
1000
1650402
1002
}
1002
{
1070
     2
1000
-2000051
1002
}
1002
{
1070
     3
1000
-2000043
1002
}
  0
LINE
  5
BE
330
70
100
AcDbEntity
  8
A-DETL-MEDM
100
AcDbLine
 10
413.3433013668171
 20
-43.81960382353873
 30
0.0
 11
407.1836535051302
 21
-40.26332947248049
 31
0.0
1001
REVIT
1002
{
1070
     1
1000
1650402
1002
}
1002
{
1070
     2
1000
-2000051
1002
}
1002
{
1070
     3
1000
-2000043
1002
}
  0
LINE
  5
BF
330
70
100
AcDbEntity
  8
A-DETL-MEDM
100
AcDbLine
 10
407.1836535051302
 20
-40.26332947248049
 30
0.0
 11
407.1836535051302
 21
-41.27197613137899
 31
0.0
1001
REVIT
1002
{
1070
     1
1000
1650402
1002
}
1002
{
1070
     2
1000
-2000051
1002
}
1002
{
1070
     3
1000
-2000043
1002
}
  0
LINE
  5
C0
330
70
100
AcDbEntity
  8
A-DETL-MEDM
100
AcDbLine
 10
407.1836535051302
 20
-41.27197613137899
 30
0.0
 11
404.6830473289727
 21
-42.71570178032079
 31
0.0
1001
REVIT
1002
{
1070
     1
1000
1650402
1002
}
1002
{
1070
     2
1000
-2000051
1002
}
1002
{
1070
     3
1000
-2000043
1002
}
  0
LINE
  5
C1
330
70
100
AcDbEntity
  8
A-DETL-MEDM
100
AcDbLine
 10
404.6830473289727
 20
-42.71570178032079
 30
0.0
 11
404.6830473289727
 21
-59.81960382353875
 31
0.0
1001
REVIT
1002
{
1070
     1
1000
1650402
1002
}
1002
{
1070
     2
1000
-2000051
1002
}
1002
{
1070
     3
1000
-2000043
1002
}
  0
LINE
  5
C2
330
70
100
AcDbEntity
  8
A-DETL-MEDM
100
AcDbLine
 10
410.7452251554637
 20
-49.27040999319322
 30
0.0
 11
407.281123540326
 21
-47.27040999319322
 31
0.0
1001
REVIT
1002
{
1070
     1
1000
1650417
1002
}
1002
{
1070
     2
1000
-2000051
1002
}
1002
{
1070
     3
1000
-2000043
1002
}
  0
LINE
  5
C3
330
70
100
AcDbEntity
  8
A-DETL-MEDM
100
AcDbLine
 10
407.281123540326
 20
-47.27040999319322
 30
0.0
 11
406.6316044874877
 21
-47.64540999319324
 31
0.0
1001
REVIT
1002
{
1070
     1
1000
1650417
1002
}
1002
{
1070
     2
1000
-2000051
1002
}
1002
{
1070
     3
1000
-2000043
1002
}
  0
LINE
  5
C4
330
70
100
AcDbEntity
  8
A-DETL-MEDM
100
AcDbLine
 10
410.7452251554637
 20
-49.2704099931932
 30
0.0
 11
410.0957061026254
 21
-49.64540999319321
 31
0.0
1001
REVIT
1002
{
1070
     1
1000
1650430
1002
}
1002
{
1070
     2
1000
-2000051
1002
}
1002
{
1070
     3
1000
-2000043
1002
}
  0
LINE
  5
C5
330
70
100
AcDbEntity
  8
A-DETL-MEDM
100
AcDbLine
 10
410.0957061026254
 20
-53.64540999319327
 30
0.0
 11
410.7452251554637
 21
-53.27040999319326
 31
0.0
1001
REVIT
1002
{
1070
     1
1000
1650430
1002
}
1002
{
1070
     2
1000
-2000051
1002
}
1002
{
1070
     3
1000
-2000043
1002
}
  0
LINE
  5
C6
330
70
100
AcDbEntity
  8
A-DETL-MEDM
100
AcDbLine
 10
410.7452251554637
 20
-53.27040999319326
 30
0.0
 11
410.7452251554637
 21
-49.2704099931932
 31
0.0
1001
REVIT
1002
{
1070
     1
1000
1650430
1002
}
1002
{
1070
     2
1000
-2000051
1002
}
1002
{
1070
     3
1000
-2000043
1002
}
  0
LINE
  5
C7
330
70
100
AcDbEntity
  8
A-DETL-MEDM
100
AcDbLine
 10
410.0957061026254
 20
-49.64540999319322
 30
0.0
 11
406.6316044874877
 21
-47.64540999319325
 31
0.0
1001
REVIT
1002
{
1070
     1
1000
1650458
1002
}
1002
{
1070
     5
1000
1506189
1002
}
1002
{
1070
     2
1000
-2000051
1002
}
1002
{
1070
     3
1000
-2000043
1002
}
  0
LINE
  5
C8
330
70
100
AcDbEntity
  8
A-DETL-MEDM
100
AcDbLine
 10
406.6316044874877
 20
-47.64540999319325
 30
0.0
 11
406.6316044874877
 21
-51.64540999319328
 31
0.0
1001
REVIT
1002
{
1070
     1
1000
1650458
1002
}
1002
{
1070
     5
1000
1506189
1002
}
1002
{
1070
     2
1000
-2000051
1002
}
1002
{
1070
     3
1000
-2000043
1002
}
  0
LINE
  5
C9
330
70
100
AcDbEntity
  8
A-DETL-MEDM
100
AcDbLine
 10
406.6316044874877
 20
-51.64540999319328
 30
0.0
 11
410.0957061026254
 21
-53.64540999319327
 31
0.0
1001
REVIT
1002
{
1070
     1
1000
1650458
1002
}
1002
{
1070
     5
1000
1506189
1002
}
1002
{
1070
     2
1000
-2000051
1002
}
1002
{
1070
     3
1000
-2000043
1002
}
  0
LINE
  5
CA
330
70
100
AcDbEntity
  8
A-DETL-MEDM
100
AcDbLine
 10
410.0957061026254
 20
-53.64540999319327
 30
0.0
 11
410.0957061026254
 21
-49.64540999319322
 31
0.0
1001
REVIT
1002
{
1070
     1
1000
1650458
1002
}
1002
{
1070
     5
1000
1506189
1002
}
1002
{
1070
     2
1000
-2000051
1002
}
1002
{
1070
     3
1000
-2000043
1002
}
  0
LINE
  5
CC
330
70
100
AcDbEntity
  8
A-DETL-THIN
100
AcDbLine
 10
352.6938432012982
 20
92.11725603472219
 30
0.0
 11
352.6938432012985
 21
136.1613903120295
 31
0.0
1001
REVIT
1002
{
1070
     1
1000
1650631
1002
}
1002
{
1070
     2
1000
-2000051
1002
}
1002
{
1070
     3
1000
-2000042
1002
}
  0
LINE
  5
CD
330
70
100
AcDbEntity
  8
A-DETL-THIN
100
AcDbLine
 10
352.6938432012985
 20
136.1613903120295
 30
0.0
 11
357.1104005278654
 21
136.1613903120295
 31
0.0
1001
REVIT
1002
{
1070
     1
1000
1650632
1002
}
1002
{
1070
     2
1000
-2000051
1002
}
1002
{
1070
     3
1000
-2000042
1002
}
  0
LINE
  5
CE
330
70
100
AcDbEntity
  8
A-DETL-THIN
100
AcDbLine
 10
357.1104005278654
 20
136.1613903120295
 30
0.0
 11
352.6938432012987
 21
150.6072984083159
 31
0.0
1001
REVIT
1002
{
1070
     1
1000
1650633
1002
}
1002
{
1070
     2
1000
-2000051
1002
}
1002
{
1070
     3
1000
-2000042
1002
}
  0
LINE
  5
CF
330
70
100
AcDbEntity
  8
A-DETL-THIN
100
AcDbLine
 10
352.6938432012985
 20
136.1613903120296
 30
0.0
 11
348.1938432012988
 21
136.1613903120296
 31
0.0
1001
REVIT
1002
{
1070
     1
1000
1650634
1002
}
1002
{
1070
     2
1000
-2000051
1002
}
1002
{
1070
     3
1000
-2000042
1002
}
  0
LINE
  5
D0
330
70
100
AcDbEntity
  8
A-DETL-THIN
100
AcDbLine
 10
348.1938432012988
 20
136.1613903120296
 30
0.0
 11
352.6938432012987
 21
150.607298408316
 31
0.0
1001
REVIT
1002
{
1070
     1
1000
1650635
1002
}
1002
{
1070
     2
1000
-2000051
1002
}
1002
{
1070
     3
1000
-2000042
1002
}
  0
LINE
  5
D1
330
70
100
AcDbEntity
  8
A-DETL-THIN
100
AcDbLine
 10
349.1822140098072
 20
122.4610290033458
 30
0.0
 11
356.4266577069746
 21
124.4021718416144
 31
0.0
1001
REVIT
1002
{
1070
     1
1000
1650642
1002
}
1002
{
1070
     2
1000
-2000051
1002
}
1002
{
1070
     3
1000
-2000042
1002
}
  0
LINE
  5
D2
330
70
100
AcDbEntity
  8
A-DETL-THIN
100
AcDbLine
 10
356.4266577069745
 20
124.4021718416144
 30
0.0
 11
349.1822140098061
 21
126.3433146798838
 31
0.0
1001
REVIT
1002
{
1070
     1
1000
1650643
1002
}
1002
{
1070
     2
1000
-2000051
1002
}
1002
{
1070
     3
1000
-2000042
1002
}
  0
LINE
  5
D3
330
70
100
AcDbEntity
  8
A-DETL-THIN
100
AcDbLine
 10
349.1822140098061
 20
126.3433146798838
 30
0.0
 11
356.4266577069751
 21
128.2844575181528
 31
0.0
1001
REVIT
1002
{
1070
     1
1000
1650644
1002
}
1002
{
1070
     2
1000
-2000051
1002
}
1002
{
1070
     3
1000
-2000042
1002
}
  0
LINE
  5
D4
330
70
100
AcDbEntity
  8
A-DETL-THIN
100
AcDbLine
 10
352.6938432012977
 20
-216.2971612731942
 30
0.0
 11
352.6938432012979
 21
-184.1609479720804
 31
0.0
1001
REVIT
1002
{
1070
     1
1000
1650650
1002
}
1002
{
1070
     2
1000
-2000051
1002
}
1002
{
1070
     3
1000
-2000042
1002
}
  0
LINE
  5
D5
330
70
100
AcDbEntity
  8
A-DETL-MEDM
100
AcDbLine
 10
412.8158754397559
 20
-17.68895281329506
 30
0.0
 11
430.2093267706015
 21
-27.73106662129528
 31
0.0
1001
REVIT
1002
{
1070
     1
1000
1650467
1002
}
1002
{
1070
     2
1000
-2000051
1002
}
1002
{
1070
     3
1000
-2000043
1002
}
  0
LINE
  5
D6
330
70
100
AcDbEntity
  8
A-DETL-MEDM
100
AcDbLine
 10
430.2093267706015
 20
-27.73106662129529
 30
0.0
 11
454.252133044305
 21
-41.6121872954919
 31
0.0
1001
REVIT
1002
{
1070
     1
1000
1650468
1002
}
1002
{
1070
     2
1000
-2000051
1002
}
1002
{
1070
     3
1000
-2000043
1002
}
  0
LINE
  5
D7
330
70
100
AcDbEntity
  8
A-DETL-MEDM
100
AcDbLine
 10
424.6047365813129
 20
-12.49525496681199
 30
0.0
 11
448.1824588644267
 21
-26.10785927384587
 31
0.0
1001
REVIT
1002
{
1070
     1
1000
1650469
1002
}
1002
{
1070
     2
1000
-2000051
1002
}
1002
{
1070
     3
1000
-2000043
1002
}
  0
LINE
  5
D8
330
70
100
AcDbEntity
  8
A-DETL-MEDM
100
AcDbLine
 10
448.1824588644267
 20
-26.10785927384586
 30
0.0
 11
448.1824588644267
 21
-38.10785927384587
 31
0.0
1001
REVIT
1002
{
1070
     1
1000
1650470
1002
}
1002
{
1070
     2
1000
-2000051
1002
}
1002
{
1070
     3
1000
-2000043
1002
}
  0
LINE
  5
D9
330
70
100
AcDbEntity
  8
A-DETL-MEDM
100
AcDbLine
 10
424.6047365813129
 20
-12.49525496681199
 30
0.0
 11
424.6047365813129
 21
-24.49525496681199
 31
0.0
1001
REVIT
1002
{
1070
     1
1000
1650471
1002
}
1002
{
1070
     2
1000
-2000051
1002
}
1002
{
1070
     3
1000
-2000043
1002
}
  0
LINE
  5
DA
330
70
100
AcDbEntity
  8
A-DETL-MEDM
100
AcDbLine
 10
448.1824588644267
 20
-26.10785927384588
 30
0.0
 11
455.0849664272448
 21
-30.09302387332235
 31
0.0
1001
REVIT
1002
{
1070
     1
1000
1650472
1002
}
1002
{
1070
     2
1000
-2000051
1002
}
1002
{
1070
     3
1000
-2000043
1002
}
  0
LINE
  5
DB
330
70
100
AcDbEntity
  8
A-DETL-MEDM
100
AcDbLine
 10
412.8158754397559
 20
6.311047186704941
 30
0.0
 11
436.3935977228698
 21
-7.301557120328932
 31
0.0
1001
REVIT
1002
{
1070
     1
1000
1650474
1002
}
1002
{
1070
     2
1000
-2000051
1002
}
1002
{
1070
     3
1000
-2000043
1002
}
  0
LINE
  5
DC
330
70
100
AcDbEntity
  8
A-DETL-MEDM
100
AcDbLine
 10
436.3935977228698
 20
-7.301557120328929
 30
0.0
 11
436.3935977228698
 21
-19.30155712032892
 31
0.0
1001
REVIT
1002
{
1070
     1
1000
1650475
1002
}
1002
{
1070
     2
1000
-2000051
1002
}
1002
{
1070
     3
1000
-2000043
1002
}
  0
LINE
  5
DD
330
70
100
AcDbEntity
  8
A-DETL-MEDM
100
AcDbLine
 10
412.8158754397559
 20
6.311047186704941
 30
0.0
 11
412.8158754397559
 21
-5.688952813295043
 31
0.0
1001
REVIT
1002
{
1070
     1
1000
1650476
1002
}
1002
{
1070
     2
1000
-2000051
1002
}
1002
{
1070
     3
1000
-2000043
1002
}
  0
LINE
  5
DE
330
70
100
AcDbEntity
  8
A-DETL-MEDM
100
AcDbLine
 10
436.3935977228698
 20
-7.301557120328943
 30
0.0
 11
455.4524141233819
 21
-18.30516989960019
 31
0.0
1001
REVIT
1002
{
1070
     1
1000
1650477
1002
}
1002
{
1070
     2
1000
-2000051
1002
}
1002
{
1070
     3
1000
-2000043
1002
}
  0
LINE
  5
DF
330
70
100
AcDbEntity
  8
A-DETL-MEDM
100
AcDbLine
 10
424.6047365813129
 20
11.504745033188
 30
0.0
 11
448.1824588644267
 21
-2.107859273845869
 31
0.0
1001
REVIT
1002
{
1070
     1
1000
1650479
1002
}
1002
{
1070
     2
1000
-2000051
1002
}
1002
{
1070
     3
1000
-2000043
1002
}
  0
LINE
  5
E0
330
70
100
AcDbEntity
  8
A-DETL-MEDM
100
AcDbLine
 10
448.1824588644267
 20
-2.107859273845866
 30
0.0
 11
448.1824588644267
 21
-14.10785927384588
 31
0.0
1001
REVIT
1002
{
1070
     1
1000
1650480
1002
}
1002
{
1070
     2
1000
-2000051
1002
}
1002
{
1070
     3
1000
-2000043
1002
}
  0
LINE
  5
E1
330
70
100
AcDbEntity
  8
A-DETL-MEDM
100
AcDbLine
 10
424.6047365813129
 20
11.504745033188
 30
0.0
 11
424.6047365813129
 21
-0.4952549668119941
 31
0.0
1001
REVIT
1002
{
1070
     1
1000
1650481
1002
}
1002
{
1070
     2
1000
-2000051
1002
}
1002
{
1070
     3
1000
-2000043
1002
}
  0
LINE
  5
E2
330
70
100
AcDbEntity
  8
A-DETL-MEDM
100
AcDbLine
 10
448.1824588644267
 20
-2.10785927384588
 30
0.0
 11
455.4076917000138
 21
-6.279349396429779
 31
0.0
1001
REVIT
1002
{
1070
     1
1000
1650482
1002
}
1002
{
1070
     2
1000
-2000051
1002
}
1002
{
1070
     3
1000
-2000043
1002
}
  0
LINE
  5
E3
330
70
100
AcDbEntity
  8
A-DETL-MEDM
100
AcDbLine
 10
412.8158754397559
 20
30.31104718670494
 30
0.0
 11
436.3935977228698
 21
16.69844287967106
 31
0.0
1001
REVIT
1002
{
1070
     1
1000
1650484
1002
}
1002
{
1070
     2
1000
-2000051
1002
}
1002
{
1070
     3
1000
-2000043
1002
}
  0
LINE
  5
E4
330
70
100
AcDbEntity
  8
A-DETL-MEDM
100
AcDbLine
 10
436.3935977228698
 20
16.69844287967106
 30
0.0
 11
436.3935977228698
 21
4.698442879671068
 31
0.0
1001
REVIT
1002
{
1070
     1
1000
1650485
1002
}
1002
{
1070
     2
1000
-2000051
1002
}
1002
{
1070
     3
1000
-2000043
1002
}
  0
LINE
  5
E5
330
70
100
AcDbEntity
  8
A-DETL-MEDM
100
AcDbLine
 10
412.8158754397559
 20
30.31104718670494
 30
0.0
 11
412.8158754397559
 21
18.31104718670494
 31
0.0
1001
REVIT
1002
{
1070
     1
1000
1650486
1002
}
1002
{
1070
     2
1000
-2000051
1002
}
1002
{
1070
     3
1000
-2000043
1002
}
  0
LINE
  5
E6
330
70
100
AcDbEntity
  8
A-DETL-MEDM
100
AcDbLine
 10
436.3935977228698
 20
16.69844287967105
 30
0.0
 11
454.9797853554301
 21
5.967702446803594
 31
0.0
1001
REVIT
1002
{
1070
     1
1000
1650487
1002
}
1002
{
1070
     2
1000
-2000051
1002
}
1002
{
1070
     3
1000
-2000043
1002
}
  0
LINE
  5
E7
330
70
100
AcDbEntity
  8
A-DETL-MEDM
100
AcDbLine
 10
424.6047365813129
 20
35.504745033188
 30
0.0
 11
448.1824588644267
 21
21.89214072615413
 31
0.0
1001
REVIT
1002
{
1070
     1
1000
1650489
1002
}
1002
{
1070
     2
1000
-2000051
1002
}
1002
{
1070
     3
1000
-2000043
1002
}
  0
LINE
  5
E8
330
70
100
AcDbEntity
  8
A-DETL-MEDM
100
AcDbLine
 10
448.1824588644267
 20
21.89214072615413
 30
0.0
 11
448.1824588644267
 21
9.892140726154117
 31
0.0
1001
REVIT
1002
{
1070
     1
1000
1650490
1002
}
1002
{
1070
     2
1000
-2000051
1002
}
1002
{
1070
     3
1000
-2000043
1002
}
  0
LINE
  5
E9
330
70
100
AcDbEntity
  8
A-DETL-MEDM
100
AcDbLine
 10
424.6047365813129
 20
35.504745033188
 30
0.0
 11
424.6047365813129
 21
23.504745033188
 31
0.0
1001
REVIT
1002
{
1070
     1
1000
1650491
1002
}
1002
{
1070
     2
1000
-2000051
1002
}
1002
{
1070
     3
1000
-2000043
1002
}
  0
LINE
  5
EA
330
70
100
AcDbEntity
  8
A-DETL-MEDM
100
AcDbLine
 10
448.1824588644267
 20
21.89214072615412
 30
0.0
 11
454.1953907757557
 21
18.42057286852946
 31
0.0
1001
REVIT
1002
{
1070
     1
1000
1650492
1002
}
1002
{
1070
     2
1000
-2000051
1002
}
1002
{
1070
     3
1000
-2000043
1002
}
  0
LINE
  5
EB
330
70
100
AcDbEntity
  8
A-DETL-MEDM
100
AcDbLine
 10
412.8158754397559
 20
54.31104718670493
 30
0.0
 11
436.3935977228698
 21
40.69844287967106
 31
0.0
1001
REVIT
1002
{
1070
     1
1000
1650494
1002
}
1002
{
1070
     2
1000
-2000051
1002
}
1002
{
1070
     3
1000
-2000043
1002
}
  0
LINE
  5
EC
330
70
100
AcDbEntity
  8
A-DETL-MEDM
100
AcDbLine
 10
436.3935977228698
 20
40.69844287967106
 30
0.0
 11
436.3935977228698
 21
28.69844287967107
 31
0.0
1001
REVIT
1002
{
1070
     1
1000
1650495
1002
}
1002
{
1070
     2
1000
-2000051
1002
}
1002
{
1070
     3
1000
-2000043
1002
}
  0
LINE
  5
ED
330
70
100
AcDbEntity
  8
A-DETL-MEDM
100
AcDbLine
 10
412.8158754397559
 20
54.31104718670493
 30
0.0
 11
412.8158754397559
 21
42.31104718670494
 31
0.0
1001
REVIT
1002
{
1070
     1
1000
1650496
1002
}
1002
{
1070
     2
1000
-2000051
1002
}
1002
{
1070
     3
1000
-2000043
1002
}
  0
LINE
  5
EE
330
70
100
AcDbEntity
  8
A-DETL-MEDM
100
AcDbLine
 10
436.3935977228698
 20
40.69844287967105
 30
0.0
 11
453.1071388998925
 21
31.0488753820052
 31
0.0
1001
REVIT
1002
{
1070
     1
1000
1650497
1002
}
1002
{
1070
     2
1000
-2000051
1002
}
1002
{
1070
     3
1000
-2000043
1002
}
  0
LINE
  5
EF
330
70
100
AcDbEntity
  8
A-DETL-MEDM
100
AcDbLine
 10
424.6047365813129
 20
59.504745033188
 30
0.0
 11
448.1824588644267
 21
45.89214072615413
 31
0.0
1001
REVIT
1002
{
1070
     1
1000
1650499
1002
}
1002
{
1070
     2
1000
-2000051
1002
}
1002
{
1070
     3
1000
-2000043
1002
}
  0
LINE
  5
F0
330
70
100
AcDbEntity
  8
A-DETL-MEDM
100
AcDbLine
 10
448.1824588644267
 20
45.89214072615413
 30
0.0
 11
448.1824588644267
 21
33.89214072615412
 31
0.0
1001
REVIT
1002
{
1070
     1
1000
1650500
1002
}
1002
{
1070
     2
1000
-2000051
1002
}
1002
{
1070
     3
1000
-2000043
1002
}
  0
LINE
  5
F1
330
70
100
AcDbEntity
  8
A-DETL-MEDM
100
AcDbLine
 10
424.6047365813129
 20
59.504745033188
 30
0.0
 11
424.6047365813129
 21
47.50474503318799
 31
0.0
1001
REVIT
1002
{
1070
     1
1000
1650501
1002
}
1002
{
1070
     2
1000
-2000051
1002
}
1002
{
1070
     3
1000
-2000043
1002
}
  0
LINE
  5
F2
330
70
100
AcDbEntity
  8
A-DETL-MEDM
100
AcDbLine
 10
448.1824588644267
 20
45.89214072615411
 30
0.0
 11
451.7250131291637
 21
43.84684606778934
 31
0.0
1001
REVIT
1002
{
1070
     1
1000
1650502
1002
}
1002
{
1070
     2
1000
-2000051
1002
}
1002
{
1070
     3
1000
-2000043
1002
}
  0
LINE
  5
F3
330
70
100
AcDbEntity
  8
A-DETL-MEDM
100
AcDbLine
 10
412.8158754397559
 20
78.31104718670491
 30
0.0
 11
436.3935977228698
 21
64.69844287967103
 31
0.0
1001
REVIT
1002
{
1070
     1
1000
1650504
1002
}
1002
{
1070
     2
1000
-2000051
1002
}
1002
{
1070
     3
1000
-2000043
1002
}
  0
LINE
  5
F4
330
70
100
AcDbEntity
  8
A-DETL-MEDM
100
AcDbLine
 10
436.3935977228698
 20
64.69844287967103
 30
0.0
 11
436.3935977228698
 21
52.69844287967106
 31
0.0
1001
REVIT
1002
{
1070
     1
1000
1650505
1002
}
1002
{
1070
     2
1000
-2000051
1002
}
1002
{
1070
     3
1000
-2000043
1002
}
  0
LINE
  5
F5
330
70
100
AcDbEntity
  8
A-DETL-MEDM
100
AcDbLine
 10
412.8158754397559
 20
78.31104718670491
 30
0.0
 11
412.8158754397559
 21
66.31104718670499
 31
0.0
1001
REVIT
1002
{
1070
     1
1000
1650506
1002
}
1002
{
1070
     2
1000
-2000051
1002
}
1002
{
1070
     3
1000
-2000043
1002
}
  0
LINE
  5
F6
330
70
100
AcDbEntity
  8
A-DETL-MEDM
100
AcDbLine
 10
436.3935977228698
 20
64.69844287967102
 30
0.0
 11
450.0820641540161
 21
56.79540310085562
 31
0.0
1001
REVIT
1002
{
1070
     1
1000
1650507
1002
}
1002
{
1070
     2
1000
-2000051
1002
}
1002
{
1070
     3
1000
-2000043
1002
}
  0
LINE
  5
F7
330
70
100
AcDbEntity
  8
A-DETL-MEDM
100
AcDbLine
 10
424.6047365813129
 20
83.50474503318798
 30
0.0
 11
448.1824588644267
 21
69.89214072615411
 31
0.0
1001
REVIT
1002
{
1070
     1
1000
1650509
1002
}
1002
{
1070
     2
1000
-2000051
1002
}
1002
{
1070
     3
1000
-2000043
1002
}
  0
LINE
  5
F8
330
70
100
AcDbEntity
  8
A-DETL-MEDM
100
AcDbLine
 10
448.1824588644267
 20
69.89214072615411
 30
0.0
 11
448.1824588644267
 21
57.89214072615408
 31
0.0
1001
REVIT
1002
{
1070
     1
1000
1650510
1002
}
1002
{
1070
     2
1000
-2000051
1002
}
1002
{
1070
     3
1000
-2000043
1002
}
  0
LINE
  5
F9
330
70
100
AcDbEntity
  8
A-DETL-MEDM
100
AcDbLine
 10
424.6047365813129
 20
83.50474503318798
 30
0.0
 11
424.6047365813129
 21
71.50474503318797
 31
0.0
1001
REVIT
1002
{
1070
     1
1000
1650511
1002
}
1002
{
1070
     2
1000
-2000051
1002
}
1002
{
1070
     3
1000
-2000043
1002
}
  0
LINE
  5
FA
330
70
100
AcDbEntity
  8
A-DETL-MEDM
100
AcDbLine
 10
412.8158754397559
 20
102.3110471867049
 30
0.0
 11
436.3935977228698
 21
88.69844287967101
 31
0.0
1001
REVIT
1002
{
1070
     1
1000
1650514
1002
}
1002
{
1070
     2
1000
-2000051
1002
}
1002
{
1070
     3
1000
-2000043
1002
}
  0
LINE
  5
FB
330
70
100
AcDbEntity
  8
A-DETL-MEDM
100
AcDbLine
 10
436.3935977228698
 20
88.69844287967101
 30
0.0
 11
436.3935977228698
 21
76.69844287967103
 31
0.0
1001
REVIT
1002
{
1070
     1
1000
1650515
1002
}
1002
{
1070
     2
1000
-2000051
1002
}
1002
{
1070
     3
1000
-2000043
1002
}
  0
LINE
  5
FC
330
70
100
AcDbEntity
  8
A-DETL-MEDM
100
AcDbLine
 10
412.8158754397559
 20
102.3110471867049
 30
0.0
 11
412.8158754397559
 21
90.31104718670496
 31
0.0
1001
REVIT
1002
{
1070
     1
1000
1650516
1002
}
1002
{
1070
     2
1000
-2000051
1002
}
1002
{
1070
     3
1000
-2000043
1002
}
  0
LINE
  5
FD
330
70
100
AcDbEntity
  8
A-DETL-MEDM
100
AcDbLine
 10
436.3935977228698
 20
88.69844287967103
 30
0.0
 11
446.0828897404207
 21
83.1043275250812
 31
0.0
1001
REVIT
1002
{
1070
     1
1000
1650517
1002
}
1002
{
1070
     2
1000
-2000051
1002
}
1002
{
1070
     3
1000
-2000043
1002
}
  0
LINE
  5
FE
330
70
100
AcDbEntity
  8
A-DETL-MEDM
100
AcDbLine
 10
424.6047365813129
 20
107.5047450331879
 30
0.0
 11
443.76359335785
 21
96.44337391588889
 31
0.0
1001
REVIT
1002
{
1070
     1
1000
1650519
1002
}
1002
{
1070
     2
1000
-2000051
1002
}
1002
{
1070
     3
1000
-2000043
1002
}
  0
LINE
  5
FF
330
70
100
AcDbEntity
  8
A-DETL-MEDM
100
AcDbLine
 10
424.6047365813129
 20
107.5047450331879
 30
0.0
 11
424.6047365813129
 21
95.50474503318794
 31
0.0
1001
REVIT
1002
{
1070
     1
1000
1650521
1002
}
1002
{
1070
     2
1000
-2000051
1002
}
1002
{
1070
     3
1000
-2000043
1002
}
  0
LINE
  5
100
330
70
100
AcDbEntity
  8
A-DETL-MEDM
100
AcDbLine
 10
394.263062582951
 20
-6.977481316194013
 30
0.0
 11
412.8158754397559
 21
-17.68895281329506
 31
0.0
1001
REVIT
1002
{
1070
     1
1000
1650524
1002
}
1002
{
1070
     2
1000
-2000051
1002
}
1002
{
1070
     3
1000
-2000043
1002
}
  0
LINE
  5
101
330
70
100
AcDbEntity
  8
A-DETL-MEDM
100
AcDbLine
 10
394.263062582951
 20
17.02251868380594
 30
0.0
 11
412.8158754397559
 21
6.311047186704941
 31
0.0
1001
REVIT
1002
{
1070
     1
1000
1650525
1002
}
1002
{
1070
     2
1000
-2000051
1002
}
1002
{
1070
     3
1000
-2000043
1002
}
  0
LINE
  5
102
330
70
100
AcDbEntity
  8
A-DETL-MEDM
100
AcDbLine
 10
394.263062582951
 20
41.02251868380593
 30
0.0
 11
412.8158754397559
 21
30.31104718670494
 31
0.0
1001
REVIT
1002
{
1070
     1
1000
1650526
1002
}
1002
{
1070
     2
1000
-2000051
1002
}
1002
{
1070
     3
1000
-2000043
1002
}
  0
LINE
  5
103
330
70
100
AcDbEntity
  8
A-DETL-MEDM
100
AcDbLine
 10
394.2630625829512
 20
65.02251868380588
 30
0.0
 11
412.8158754397559
 21
54.31104718670493
 31
0.0
1001
REVIT
1002
{
1070
     1
1000
1650527
1002
}
1002
{
1070
     2
1000
-2000051
1002
}
1002
{
1070
     3
1000
-2000043
1002
}
  0
LINE
  5
104
330
70
100
AcDbEntity
  8
A-DETL-MEDM
100
AcDbLine
 10
394.2630625829512
 20
89.02251868380586
 30
0.0
 11
412.8158754397559
 21
78.31104718670491
 31
0.0
1001
REVIT
1002
{
1070
     1
1000
1650528
1002
}
1002
{
1070
     2
1000
-2000051
1002
}
1002
{
1070
     3
1000
-2000043
1002
}
  0
LINE
  5
105
330
70
100
AcDbEntity
  8
A-DETL-MEDM
100
AcDbLine
 10
389.2381531566422
 20
115.9236514937388
 30
0.0
 11
412.8158754397559
 21
102.3110471867049
 31
0.0
1001
REVIT
1002
{
1070
     1
1000
1650529
1002
}
1002
{
1070
     2
1000
-2000051
1002
}
1002
{
1070
     3
1000
-2000043
1002
}
  0
LINE
  5
106
330
70
100
AcDbEntity
  8
A-DETL-MEDM
100
AcDbLine
 10
389.2381531566422
 20
115.9236514937388
 30
0.0
 11
389.2381531566422
 21
105.6683389277072
 31
0.0
1001
REVIT
1002
{
1070
     1
1000
1650530
1002
}
1002
{
1070
     2
1000
-2000051
1002
}
1002
{
1070
     3
1000
-2000043
1002
}
  0
LINE
  5
107
330
70
100
AcDbEntity
  8
A-DETL-MEDM
100
AcDbLine
 10
401.027014298199
 20
49.11734934022188
 30
0.0
 11
424.6047365813129
 21
35.50474503318802
 31
0.0
1001
REVIT
1002
{
1070
     1
1000
1650531
1002
}
1002
{
1070
     2
1000
-2000051
1002
}
1002
{
1070
     3
1000
-2000043
1002
}
  0
LINE
  5
108
330
70
100
AcDbEntity
  8
A-DETL-MEDM
100
AcDbLine
 10
401.027014298199
 20
49.11734934022188
 30
0.0
 11
401.027014298199
 21
37.11734934022187
 31
0.0
1001
REVIT
1002
{
1070
     1
1000
1650532
1002
}
1002
{
1070
     2
1000
-2000051
1002
}
1002
{
1070
     3
1000
-2000043
1002
}
  0
LINE
  5
109
330
70
100
AcDbEntity
  8
A-DETL-MEDM
100
AcDbLine
 10
401.027014298199
 20
25.11734934022188
 30
0.0
 11
424.6047365813129
 21
11.504745033188
 31
0.0
1001
REVIT
1002
{
1070
     1
1000
1650533
1002
}
1002
{
1070
     2
1000
-2000051
1002
}
1002
{
1070
     3
1000
-2000043
1002
}
  0
LINE
  5
10A
330
70
100
AcDbEntity
  8
A-DETL-MEDM
100
AcDbLine
 10
401.027014298199
 20
25.11734934022188
 30
0.0
 11
401.027014298199
 21
13.11734934022188
 31
0.0
1001
REVIT
1002
{
1070
     1
1000
1650534
1002
}
1002
{
1070
     2
1000
-2000051
1002
}
1002
{
1070
     3
1000
-2000043
1002
}
  0
LINE
  5
10B
330
70
100
AcDbEntity
  8
A-DETL-MEDM
100
AcDbLine
 10
401.027014298199
 20
1.117349340221892
 30
0.0
 11
424.6047365813129
 21
-12.49525496681198
 31
0.0
1001
REVIT
1002
{
1070
     1
1000
1650535
1002
}
1002
{
1070
     2
1000
-2000051
1002
}
1002
{
1070
     3
1000
-2000043
1002
}
  0
LINE
  5
10C
330
70
100
AcDbEntity
  8
A-DETL-MEDM
100
AcDbLine
 10
401.027014298199
 20
1.117349340221892
 30
0.0
 11
401.027014298199
 21
-10.88265065977812
 31
0.0
1001
REVIT
1002
{
1070
     1
1000
1650536
1002
}
1002
{
1070
     2
1000
-2000051
1002
}
1002
{
1070
     3
1000
-2000043
1002
}
  0
LINE
  5
10D
330
70
100
AcDbEntity
  8
A-DETL-MEDM
100
AcDbLine
 10
401.0270142981991
 20
73.11734934022187
 30
0.0
 11
424.6047365813129
 21
59.50474503318805
 31
0.0
1001
REVIT
1002
{
1070
     1
1000
1650537
1002
}
1002
{
1070
     2
1000
-2000051
1002
}
1002
{
1070
     3
1000
-2000043
1002
}
  0
LINE
  5
10E
330
70
100
AcDbEntity
  8
A-DETL-MEDM
100
AcDbLine
 10
401.0270142981991
 20
73.11734934022187
 30
0.0
 11
401.0270142981991
 21
61.11734934022182
 31
0.0
1001
REVIT
1002
{
1070
     1
1000
1650538
1002
}
1002
{
1070
     2
1000
-2000051
1002
}
1002
{
1070
     3
1000
-2000043
1002
}
  0
LINE
  5
10F
330
70
100
AcDbEntity
  8
A-DETL-MEDM
100
AcDbLine
 10
401.0270142981991
 20
97.11734934022185
 30
0.0
 11
424.6047365813129
 21
83.50474503318803
 31
0.0
1001
REVIT
1002
{
1070
     1
1000
1650539
1002
}
1002
{
1070
     2
1000
-2000051
1002
}
1002
{
1070
     3
1000
-2000043
1002
}
  0
LINE
  5
110
330
70
100
AcDbEntity
  8
A-DETL-MEDM
100
AcDbLine
 10
401.0270142981991
 20
97.11734934022185
 30
0.0
 11
401.0270142981991
 21
85.11734934022179
 31
0.0
1001
REVIT
1002
{
1070
     1
1000
1650540
1002
}
1002
{
1070
     2
1000
-2000051
1002
}
1002
{
1070
     3
1000
-2000043
1002
}
  0
LINE
  5
111
330
70
100
AcDbEntity
  8
A-DETL-MEDM
100
AcDbLine
 10
394.2630625829512
 20
77.02251868380613
 30
0.0
 11
401.0270142981991
 21
73.11734934022208
 31
0.0
1001
REVIT
1002
{
1070
     1
1000
1650541
1002
}
1002
{
1070
     2
1000
-2000051
1002
}
1002
{
1070
     3
1000
-2000043
1002
}
  0
LINE
  5
112
330
70
100
AcDbEntity
  8
A-DETL-MEDM
100
AcDbLine
 10
394.263062582951
 20
53.02251868380609
 30
0.0
 11
401.027014298199
 21
49.11734934022203
 31
0.0
1001
REVIT
1002
{
1070
     1
1000
1650542
1002
}
1002
{
1070
     2
1000
-2000051
1002
}
1002
{
1070
     3
1000
-2000043
1002
}
  0
LINE
  5
113
330
70
100
AcDbEntity
  8
A-DETL-MEDM
100
AcDbLine
 10
394.263062582951
 20
29.02251868380609
 30
0.0
 11
401.027014298199
 21
25.11734934022203
 31
0.0
1001
REVIT
1002
{
1070
     1
1000
1650543
1002
}
1002
{
1070
     2
1000
-2000051
1002
}
1002
{
1070
     3
1000
-2000043
1002
}
  0
LINE
  5
114
330
70
100
AcDbEntity
  8
A-DETL-MEDM
100
AcDbLine
 10
394.263062582951
 20
5.022518683806111
 30
0.0
 11
401.027014298199
 21
1.117349340222046
 31
0.0
1001
REVIT
1002
{
1070
     1
1000
1650544
1002
}
1002
{
1070
     2
1000
-2000051
1002
}
1002
{
1070
     3
1000
-2000043
1002
}
  0
LINE
  5
115
330
70
100
AcDbEntity
  8
A-DETL-MEDM
100
AcDbLine
 10
391.3721122789947
 20
102.691609620009
 30
0.0
 11
401.0270142981991
 21
97.11734934022189
 31
0.0
1001
REVIT
1002
{
1070
     1
1000
1650545
1002
}
1002
{
1070
     2
1000
-2000051
1002
}
1002
{
1070
     3
1000
-2000043
1002
}
  0
LINE
  5
116
330
70
100
AcDbEntity
  8
A-DETL-MEDM
100
AcDbLine
 10
414.2093267706014
 20
-102.4934623142612
 30
0.0
 11
418.4204656290446
 21
-104.9247644677783
 31
0.0
1001
REVIT
1002
{
1070
     1
1000
1650552
1002
}
1002
{
1070
     2
1000
-2000051
1002
}
1002
{
1070
     3
1000
-2000043
1002
}
  0
LINE
  5
117
330
70
100
AcDbEntity
  8
A-DETL-MEDM
100
AcDbLine
 10
418.4204656290446
 20
-104.9247644677783
 30
0.0
 11
438.598422962129
 21
-116.5745135657313
 31
0.0
1001
REVIT
1002
{
1070
     1
1000
1650553
1002
}
1002
{
1070
     2
1000
-2000051
1002
}
1002
{
1070
     3
1000
-2000043
1002
}
  0
LINE
  5
118
330
70
100
AcDbEntity
  8
A-DETL-MEDM
100
AcDbLine
 10
414.2093267706014
 20
-90.49346231426126
 30
0.0
 11
436.3935977228698
 21
-103.3015571203289
 31
0.0
1001
REVIT
1002
{
1070
     1
1000
1650554
1002
}
1002
{
1070
     2
1000
-2000051
1002
}
1002
{
1070
     3
1000
-2000043
1002
}
  0
LINE
  5
119
330
70
100
AcDbEntity
  8
A-DETL-MEDM
100
AcDbLine
 10
436.3935977228698
 20
-103.3015571203289
 30
0.0
 11
436.3935977228698
 21
-115.3015571203289
 31
0.0
1001
REVIT
1002
{
1070
     1
1000
1650555
1002
}
1002
{
1070
     2
1000
-2000051
1002
}
1002
{
1070
     3
1000
-2000043
1002
}
  0
LINE
  5
11A
330
70
100
AcDbEntity
  8
A-DETL-MEDM
100
AcDbLine
 10
436.3935977228698
 20
-103.3015571203289
 30
0.0
 11
440.4368513094802
 21
-105.6359306669603
 31
0.0
1001
REVIT
1002
{
1070
     1
1000
1650556
1002
}
1002
{
1070
     2
1000
-2000051
1002
}
1002
{
1070
     3
1000
-2000043
1002
}
  0
LINE
  5
11B
330
70
100
AcDbEntity
  8
A-DETL-MEDM
100
AcDbLine
 10
424.6047365813129
 20
-84.49525496681198
 30
0.0
 11
424.6047365813129
 21
-96.49525496681196
 31
0.0
1001
REVIT
1002
{
1070
     1
1000
1650558
1002
}
1002
{
1070
     2
1000
-2000051
1002
}
1002
{
1070
     3
1000
-2000043
1002
}
  0
LINE
  5
11C
330
70
100
AcDbEntity
  8
A-DETL-MEDM
100
AcDbLine
 10
424.6047365813129
 20
-84.49525496681198
 30
0.0
 11
443.1316849042801
 21
-95.19179356833928
 31
0.0
1001
REVIT
1002
{
1070
     1
1000
1650559
1002
}
1002
{
1070
     2
1000
-2000051
1002
}
1002
{
1070
     3
1000
-2000043
1002
}
  0
LINE
  5
11D
330
70
100
AcDbEntity
  8
A-DETL-MEDM
100
AcDbLine
 10
412.8158754397559
 20
-65.68895281329503
 30
0.0
 11
436.3935977228698
 21
-79.30155712032891
 31
0.0
1001
REVIT
1002
{
1070
     1
1000
1650561
1002
}
1002
{
1070
     2
1000
-2000051
1002
}
1002
{
1070
     3
1000
-2000043
1002
}
  0
LINE
  5
11E
330
70
100
AcDbEntity
  8
A-DETL-MEDM
100
AcDbLine
 10
436.3935977228698
 20
-79.30155712032891
 30
0.0
 11
436.3935977228698
 21
-91.30155712032893
 31
0.0
1001
REVIT
1002
{
1070
     1
1000
1650562
1002
}
1002
{
1070
     2
1000
-2000051
1002
}
1002
{
1070
     3
1000
-2000043
1002
}
  0
LINE
  5
11F
330
70
100
AcDbEntity
  8
A-DETL-MEDM
100
AcDbLine
 10
436.3935977228698
 20
-79.30155712032891
 30
0.0
 11
446.0560184447662
 21
-84.88015832513916
 31
0.0
1001
REVIT
1002
{
1070
     1
1000
1650563
1002
}
1002
{
1070
     2
1000
-2000051
1002
}
1002
{
1070
     3
1000
-2000043
1002
}
  0
LINE
  5
120
330
70
100
AcDbEntity
  8
A-DETL-MEDM
100
AcDbLine
 10
401.027014298199
 20
-46.8826506597781
 30
0.0
 11
404.6830473289725
 21
-48.99346231426132
 31
0.0
1001
REVIT
1002
{
1070
     1
1000
1650565
1002
}
1002
{
1070
     2
1000
-2000051
1002
}
1002
{
1070
     3
1000
-2000043
1002
}
  0
LINE
  5
121
330
70
100
AcDbEntity
  8
A-DETL-MEDM
100
AcDbLine
 10
424.6047365813129
 20
-60.49525496681198
 30
0.0
 11
424.6047365813129
 21
-72.49525496681197
 31
0.0
1001
REVIT
1002
{
1070
     1
1000
1650566
1002
}
1002
{
1070
     2
1000
-2000051
1002
}
1002
{
1070
     3
1000
-2000043
1002
}
  0
LINE
  5
122
330
70
100
AcDbEntity
  8
A-DETL-MEDM
100
AcDbLine
 10
401.027014298199
 20
-46.8826506597781
 30
0.0
 11
401.027014298199
 21
-58.8826506597781
 31
0.0
1001
REVIT
1002
{
1070
     1
1000
1650567
1002
}
1002
{
1070
     2
1000
-2000051
1002
}
1002
{
1070
     3
1000
-2000043
1002
}
  0
LINE
  5
123
330
70
100
AcDbEntity
  8
A-DETL-MEDM
100
AcDbLine
 10
424.6047365813129
 20
-60.49525496681198
 30
0.0
 11
448.1824588644267
 21
-74.10785927384586
 31
0.0
1001
REVIT
1002
{
1070
     1
1000
1650568
1002
}
1002
{
1070
     2
1000
-2000051
1002
}
1002
{
1070
     3
1000
-2000043
1002
}
  0
LINE
  5
124
330
70
100
AcDbEntity
  8
A-DETL-MEDM
100
AcDbLine
 10
448.1824588644267
 20
-74.10785927384586
 30
0.0
 11
448.1824588644267
 21
-76.90952751180986
 31
0.0
1001
REVIT
1002
{
1070
     1
1000
1650569
1002
}
1002
{
1070
     2
1000
-2000051
1002
}
1002
{
1070
     3
1000
-2000043
1002
}
  0
LINE
  5
125
330
70
100
AcDbEntity
  8
A-DETL-MEDM
100
AcDbLine
 10
412.8158754397559
 20
-41.68895281329503
 30
0.0
 11
436.3935977228698
 21
-55.30155712032891
 31
0.0
1001
REVIT
1002
{
1070
     1
1000
1650570
1002
}
1002
{
1070
     2
1000
-2000051
1002
}
1002
{
1070
     3
1000
-2000043
1002
}
  0
LINE
  5
126
330
70
100
AcDbEntity
  8
A-DETL-MEDM
100
AcDbLine
 10
436.3935977228698
 20
-55.30155712032891
 30
0.0
 11
436.3935977228698
 21
-67.30155712032892
 31
0.0
1001
REVIT
1002
{
1070
     1
1000
1650571
1002
}
1002
{
1070
     2
1000
-2000051
1002
}
1002
{
1070
     3
1000
-2000043
1002
}
  0
LINE
  5
127
330
70
100
AcDbEntity
  8
A-DETL-MEDM
100
AcDbLine
 10
412.8158754397559
 20
-41.68895281329503
 30
0.0
 11
412.8158754397559
 21
-42.51509432257248
 31
0.0
1001
REVIT
1002
{
1070
     1
1000
1650572
1002
}
1002
{
1070
     2
1000
-2000051
1002
}
1002
{
1070
     3
1000
-2000043
1002
}
  0
LINE
  5
128
330
70
100
AcDbEntity
  8
A-DETL-MEDM
100
AcDbLine
 10
436.3935977228698
 20
-55.30155712032891
 30
0.0
 11
451.1080613875564
 21
-63.79695667811661
 31
0.0
1001
REVIT
1002
{
1070
     1
1000
1650573
1002
}
1002
{
1070
     2
1000
-2000051
1002
}
1002
{
1070
     3
1000
-2000043
1002
}
  0
LINE
  5
129
330
70
100
AcDbEntity
  8
A-DETL-MEDM
100
AcDbLine
 10
401.027014298199
 20
-22.8826506597781
 30
0.0
 11
424.6047365813129
 21
-36.49525496681198
 31
0.0
1001
REVIT
1002
{
1070
     1
1000
1650575
1002
}
1002
{
1070
     2
1000
-2000051
1002
}
1002
{
1070
     3
1000
-2000043
1002
}
  0
LINE
  5
12A
330
70
100
AcDbEntity
  8
A-DETL-MEDM
100
AcDbLine
 10
424.6047365813129
 20
-36.49525496681198
 30
0.0
 11
424.6047365813129
 21
-48.49525496681197
 31
0.0
1001
REVIT
1002
{
1070
     1
1000
1650576
1002
}
1002
{
1070
     2
1000
-2000051
1002
}
1002
{
1070
     3
1000
-2000043
1002
}
  0
LINE
  5
12B
330
70
100
AcDbEntity
  8
A-DETL-MEDM
100
AcDbLine
 10
401.027014298199
 20
-22.8826506597781
 30
0.0
 11
401.027014298199
 21
-34.88265065977807
 31
0.0
1001
REVIT
1002
{
1070
     1
1000
1650577
1002
}
1002
{
1070
     2
1000
-2000051
1002
}
1002
{
1070
     3
1000
-2000043
1002
}
  0
LINE
  5
12C
330
70
100
AcDbEntity
  8
A-DETL-MEDM
100
AcDbLine
 10
424.6047365813129
 20
-36.49525496681198
 30
0.0
 11
448.1824588644267
 21
-50.10785927384587
 31
0.0
1001
REVIT
1002
{
1070
     1
1000
1650578
1002
}
1002
{
1070
     2
1000
-2000051
1002
}
1002
{
1070
     3
1000
-2000043
1002
}
  0
LINE
  5
12D
330
70
100
AcDbEntity
  8
A-DETL-MEDM
100
AcDbLine
 10
448.1824588644267
 20
-50.10785927384587
 30
0.0
 11
448.1824588644267
 21
-62.10785927384585
 31
0.0
1001
REVIT
1002
{
1070
     1
1000
1650579
1002
}
1002
{
1070
     2
1000
-2000051
1002
}
1002
{
1070
     3
1000
-2000043
1002
}
  0
LINE
  5
12E
330
70
100
AcDbEntity
  8
A-DETL-MEDM
100
AcDbLine
 10
436.3935977228698
 20
-31.30155712032894
 30
0.0
 11
436.3935977228698
 21
-43.30155712032893
 31
0.0
1001
REVIT
1002
{
1070
     1
1000
1650580
1002
}
1002
{
1070
     2
1000
-2000051
1002
}
1002
{
1070
     3
1000
-2000043
1002
}
  0
LINE
  5
12F
330
70
100
AcDbEntity
  8
A-DETL-MEDM
100
AcDbLine
 10
412.8158754397559
 20
-17.68895281329506
 30
0.0
 11
412.8158754397559
 21
-29.68895281329504
 31
0.0
1001
REVIT
1002
{
1070
     1
1000
1650581
1002
}
1002
{
1070
     2
1000
-2000051
1002
}
1002
{
1070
     3
1000
-2000043
1002
}
  0
LINE
  5
130
330
70
100
AcDbEntity
  8
A-DETL-MEDM
100
AcDbLine
 10
395.3608946581259
 20
-43.61131496032127
 30
0.0
 11
395.872227421499
 21
-43.90653306890018
 31
0.0
1001
REVIT
1002
{
1070
     1
1000
1650583
1002
}
1002
{
1070
     2
1000
-2000051
1002
}
1002
{
1070
     3
1000
-2000043
1002
}
  0
LINE
  5
131
330
70
100
AcDbEntity
  8
A-DETL-MEDM
100
AcDbLine
 10
394.263062582951
 20
-18.977481316194
 30
0.0
 11
401.027014298199
 21
-22.88265065977811
 31
0.0
1001
REVIT
1002
{
1070
     1
1000
1650584
1002
}
1002
{
1070
     2
1000
-2000051
1002
}
1002
{
1070
     3
1000
-2000043
1002
}
  0
LINE
  5
132
330
70
100
AcDbEntity
  8
A-DETL-MEDM
100
AcDbLine
 10
397.5963235366474
 20
-32.90194042508987
 30
0.0
 11
412.8158754397559
 21
-41.68895281329502
 31
0.0
1001
REVIT
1002
{
1070
     1
1000
1650585
1002
}
1002
{
1070
     2
1000
-2000051
1002
}
1002
{
1070
     3
1000
-2000043
1002
}
  0
LINE
  5
133
330
70
100
AcDbEntity
  8
A-DETL-MEDM
100
AcDbLine
 10
394.263062582951
 20
-54.97748131619399
 30
0.0
 11
412.8158754397559
 21
-65.68895281329503
 31
0.0
1001
REVIT
1002
{
1070
     1
1000
1650586
1002
}
1002
{
1070
     2
1000
-2000051
1002
}
1002
{
1070
     3
1000
-2000043
1002
}
  0
LINE
  5
134
330
70
100
AcDbEntity
  8
A-DETL-MEDM
100
AcDbLine
 10
448.1824588644267
 20
-74.10785927384584
 30
0.0
 11
448.7870438582452
 21
-74.45691658277493
 31
0.0
1001
REVIT
1002
{
1070
     1
1000
1650589
1002
}
1002
{
1070
     2
1000
-2000051
1002
}
1002
{
1070
     3
1000
-2000043
1002
}
  0
LINE
  5
135
330
70
100
AcDbEntity
  8
A-DETL-MEDM
100
AcDbLine
 10
448.1824588644267
 20
-50.10785927384585
 30
0.0
 11
452.9346727028764
 21
-52.85155121272149
 31
0.0
1001
REVIT
1002
{
1070
     1
1000
1650590
1002
}
1002
{
1070
     2
1000
-2000051
1002
}
1002
{
1070
     3
1000
-2000043
1002
}
  0
LINE
  5
136
330
70
100
AcDbEntity
  8
A-DETL-MEDM
100
AcDbLine
 10
412.8158754397557
 20
-161.688952813295
 30
0.0
 11
430.2093267706012
 21
-171.7310666212952
 31
0.0
1001
REVIT
1002
{
1070
     1
1000
1650591
1002
}
1002
{
1070
     2
1000
-2000051
1002
}
1002
{
1070
     3
1000
-2000043
1002
}
  0
LINE
  5
137
330
70
100
AcDbEntity
  8
A-DETL-MEDM
100
AcDbLine
 10
430.2093267706012
 20
-171.7310666212952
 30
0.0
 11
455.6914045362074
 21
-186.4431510787787
 31
0.0
1001
REVIT
1002
{
1070
     1
1000
1650592
1002
}
1002
{
1070
     2
1000
-2000051
1002
}
1002
{
1070
     3
1000
-2000043
1002
}
  0
LINE
  5
138
330
70
100
AcDbEntity
  8
A-DETL-MEDM
100
AcDbLine
 10
424.6047365813126
 20
-156.4952549668119
 30
0.0
 11
448.1824588644264
 21
-170.1078592738458
 31
0.0
1001
REVIT
1002
{
1070
     1
1000
1650593
1002
}
1002
{
1070
     2
1000
-2000051
1002
}
1002
{
1070
     3
1000
-2000043
1002
}
  0
LINE
  5
139
330
70
100
AcDbEntity
  8
A-DETL-MEDM
100
AcDbLine
 10
448.1824588644264
 20
-170.1078592738458
 30
0.0
 11
448.1824588644264
 21
-182.1078592738458
 31
0.0
1001
REVIT
1002
{
1070
     1
1000
1650594
1002
}
1002
{
1070
     2
1000
-2000051
1002
}
1002
{
1070
     3
1000
-2000043
1002
}
  0
LINE
  5
13A
330
70
100
AcDbEntity
  8
A-DETL-MEDM
100
AcDbLine
 10
424.6047365813126
 20
-156.4952549668119
 30
0.0
 11
424.6047365813126
 21
-168.4952549668119
 31
0.0
1001
REVIT
1002
{
1070
     1
1000
1650595
1002
}
1002
{
1070
     2
1000
-2000051
1002
}
1002
{
1070
     3
1000
-2000043
1002
}
  0
LINE
  5
13B
330
70
100
AcDbEntity
  8
A-DETL-MEDM
100
AcDbLine
 10
448.1824588644264
 20
-170.1078592738458
 30
0.0
 11
448.4976873900473
 21
-170.2898565479693
 31
0.0
1001
REVIT
1002
{
1070
     1
1000
1650596
1002
}
1002
{
1070
     2
1000
-2000051
1002
}
1002
{
1070
     3
1000
-2000043
1002
}
  0
LINE
  5
13C
330
70
100
AcDbEntity
  8
A-DETL-MEDM
100
AcDbLine
 10
412.8158754397557
 20
-137.688952813295
 30
0.0
 11
436.3935977228695
 21
-151.3015571203289
 31
0.0
1001
REVIT
1002
{
1070
     1
1000
1650598
1002
}
1002
{
1070
     2
1000
-2000051
1002
}
1002
{
1070
     3
1000
-2000043
1002
}
  0
LINE
  5
13D
330
70
100
AcDbEntity
  8
A-DETL-MEDM
100
AcDbLine
 10
436.3935977228695
 20
-151.3015571203289
 30
0.0
 11
436.3935977228695
 21
-163.3015571203288
 31
0.0
1001
REVIT
1002
{
1070
     1
1000
1650599
1002
}
1002
{
1070
     2
1000
-2000051
1002
}
1002
{
1070
     3
1000
-2000043
1002
}
  0
LINE
  5
13E
330
70
100
AcDbEntity
  8
A-DETL-MEDM
100
AcDbLine
 10
412.8158754397557
 20
-137.688952813295
 30
0.0
 11
412.8158754397557
 21
-149.688952813295
 31
0.0
1001
REVIT
1002
{
1070
     1
1000
1650600
1002
}
1002
{
1070
     2
1000
-2000051
1002
}
1002
{
1070
     3
1000
-2000043
1002
}
  0
LINE
  5
13F
330
70
100
AcDbEntity
  8
A-DETL-MEDM
100
AcDbLine
 10
436.3935977228695
 20
-151.3015571203289
 30
0.0
 11
443.1039091815381
 21
-155.1757572473373
 31
0.0
1001
REVIT
1002
{
1070
     1
1000
1650601
1002
}
1002
{
1070
     2
1000
-2000051
1002
}
1002
{
1070
     3
1000
-2000043
1002
}
  0
LINE
  5
140
330
70
100
AcDbEntity
  8
A-DETL-MEDM
100
AcDbLine
 10
424.6047365813126
 20
-132.4952549668119
 30
0.0
 11
439.6713418373852
 21
-141.1939635671792
 31
0.0
1001
REVIT
1002
{
1070
     1
1000
1650603
1002
}
1002
{
1070
     2
1000
-2000051
1002
}
1002
{
1070
     3
1000
-2000043
1002
}
  0
LINE
  5
141
330
70
100
AcDbEntity
  8
A-DETL-MEDM
100
AcDbLine
 10
424.6047365813126
 20
-132.4952549668119
 30
0.0
 11
424.6047365813126
 21
-144.4952549668119
 31
0.0
1001
REVIT
1002
{
1070
     1
1000
1650605
1002
}
1002
{
1070
     2
1000
-2000051
1002
}
1002
{
1070
     3
1000
-2000043
1002
}
  0
LINE
  5
142
330
70
100
AcDbEntity
  8
A-DETL-MEDM
100
AcDbLine
 10
436.3935977228695
 20
-127.3015571203289
 30
0.0
 11
436.3935977228695
 21
-139.3015571203289
 31
0.0
1001
REVIT
1002
{
1070
     1
1000
1650608
1002
}
1002
{
1070
     2
1000
-2000051
1002
}
1002
{
1070
     3
1000
-2000043
1002
}
  0
LINE
  5
143
330
70
100
AcDbEntity
  8
A-DETL-MEDM
100
AcDbLine
 10
412.8158754397557
 20
-113.688952813295
 30
0.0
 11
412.8158754397557
 21
-125.688952813295
 31
0.0
1001
REVIT
1002
{
1070
     1
1000
1650609
1002
}
1002
{
1070
     2
1000
-2000051
1002
}
1002
{
1070
     3
1000
-2000043
1002
}
  0
LINE
  5
144
330
70
100
AcDbEntity
  8
A-DETL-MEDM
100
AcDbLine
 10
394.2630625829508
 20
-150.977481316194
 30
0.0
 11
412.8158754397557
 21
-161.688952813295
 31
0.0
1001
REVIT
1002
{
1070
     1
1000
1650611
1002
}
1002
{
1070
     2
1000
-2000051
1002
}
1002
{
1070
     3
1000
-2000043
1002
}
  0
LINE
  5
145
330
70
100
AcDbEntity
  8
A-DETL-MEDM
100
AcDbLine
 10
394.2630625829508
 20
-126.977481316194
 30
0.0
 11
412.8158754397557
 21
-137.688952813295
 31
0.0
1001
REVIT
1002
{
1070
     1
1000
1650612
1002
}
1002
{
1070
     2
1000
-2000051
1002
}
1002
{
1070
     3
1000
-2000043
1002
}
  0
LINE
  5
146
330
70
100
AcDbEntity
  8
A-DETL-MEDM
100
AcDbLine
 10
401.0270142981988
 20
-118.882650659778
 30
0.0
 11
424.6047365813126
 21
-132.4952549668119
 31
0.0
1001
REVIT
1002
{
1070
     1
1000
1650613
1002
}
1002
{
1070
     2
1000
-2000051
1002
}
1002
{
1070
     3
1000
-2000043
1002
}
  0
LINE
  5
147
330
70
100
AcDbEntity
  8
A-DETL-MEDM
100
AcDbLine
 10
401.0270142981988
 20
-118.882650659778
 30
0.0
 11
401.0270142981988
 21
-130.8826506597781
 31
0.0
1001
REVIT
1002
{
1070
     1
1000
1650614
1002
}
1002
{
1070
     2
1000
-2000051
1002
}
1002
{
1070
     3
1000
-2000043
1002
}
  0
LINE
  5
148
330
70
100
AcDbEntity
  8
A-DETL-MEDM
100
AcDbLine
 10
401.0270142981988
 20
-142.882650659778
 30
0.0
 11
424.6047365813126
 21
-156.4952549668119
 31
0.0
1001
REVIT
1002
{
1070
     1
1000
1650615
1002
}
1002
{
1070
     2
1000
-2000051
1002
}
1002
{
1070
     3
1000
-2000043
1002
}
  0
LINE
  5
149
330
70
100
AcDbEntity
  8
A-DETL-MEDM
100
AcDbLine
 10
401.0270142981988
 20
-142.882650659778
 30
0.0
 11
401.0270142981988
 21
-154.882650659778
 31
0.0
1001
REVIT
1002
{
1070
     1
1000
1650616
1002
}
1002
{
1070
     2
1000
-2000051
1002
}
1002
{
1070
     3
1000
-2000043
1002
}
  0
LINE
  5
14A
330
70
100
AcDbEntity
  8
A-DETL-MEDM
100
AcDbLine
 10
394.2630625829508
 20
-114.9774813161939
 30
0.0
 11
401.0270142981988
 21
-118.8826506597779
 31
0.0
1001
REVIT
1002
{
1070
     1
1000
1650617
1002
}
1002
{
1070
     2
1000
-2000051
1002
}
1002
{
1070
     3
1000
-2000043
1002
}
  0
LINE
  5
14B
330
70
100
AcDbEntity
  8
A-DETL-MEDM
100
AcDbLine
 10
394.2630625829508
 20
-138.9774813161938
 30
0.0
 11
401.0270142981988
 21
-142.8826506597779
 31
0.0
1001
REVIT
1002
{
1070
     1
1000
1650618
1002
}
1002
{
1070
     2
1000
-2000051
1002
}
1002
{
1070
     3
1000
-2000043
1002
}
  0
LINE
  5
14C
330
70
100
AcDbEntity
  8
A-DETL-MEDM
100
AcDbLine
 10
438.2156075658336
 20
-128.3534949936303
 30
0.0
 11
436.3935977228695
 21
-127.3015571203289
 31
0.0
1001
REVIT
1002
{
1070
     1
1000
1650621
1002
}
1002
{
1070
     2
1000
-2000051
1002
}
1002
{
1070
     3
1000
-2000043
1002
}
  0
LINE
  5
14D
330
70
100
AcDbEntity
  8
A-DETL-MEDM
100
AcDbLine
 10
436.3935977228695
 20
-127.3015571203289
 30
0.0
 11
412.8158754397557
 21
-113.688952813295
 31
0.0
1001
REVIT
1002
{
1070
     1
1000
1650622
1002
}
1002
{
1070
     2
1000
-2000051
1002
}
1002
{
1070
     3
1000
-2000043
1002
}
  0
LINE
  5
14E
330
70
100
AcDbEntity
  8
A-DETL-MEDM
100
AcDbLine
 10
424.6047365813126
 20
-120.4952549668119
 30
0.0
 11
424.6047365813126
 21
-108.4952549668118
 31
0.0
1001
REVIT
1002
{
1070
     1
1000
1650623
1002
}
1002
{
1070
     2
1000
-2000051
1002
}
1002
{
1070
     3
1000
-2000043
1002
}
  0
LINE
  5
14F
330
70
100
AcDbEntity
  8
A-DETL-MEDM
100
AcDbLine
 10
412.8158754397557
 20
-113.688952813295
 30
0.0
 11
394.2630625829508
 21
-102.9774813161941
 31
0.0
1001
REVIT
1002
{
1070
     1
1000
1650625
1002
}
1002
{
1070
     2
1000
-2000051
1002
}
1002
{
1070
     3
1000
-2000043
1002
}
  0
LINE
  5
150
330
70
100
AcDbEntity
  8
A-DETL-MEDM
100
AcDbLine
 10
401.0270142981988
 20
-94.98282651201371
 30
0.0
 11
401.0270142981988
 21
-106.8826506597781
 31
0.0
1001
REVIT
1002
{
1070
     1
1000
1650626
1002
}
1002
{
1070
     2
1000
-2000051
1002
}
1002
{
1070
     3
1000
-2000043
1002
}
  0
LINE
  5
151
330
70
100
AcDbEntity
  8
A-DETL-MEDM
100
AcDbLine
 10
400.7899956869632
 20
-94.74580790077814
 30
0.0
 11
394.2630625829508
 21
-90.97748131619395
 31
0.0
1001
REVIT
1002
{
1070
     1
1000
1650627
1002
}
1002
{
1070
     2
1000
-2000051
1002
}
1002
{
1070
     3
1000
-2000043
1002
}
  0
LINE
  5
152
330
70
100
AcDbEntity
  8
A-DETL-MEDM
100
AcDbLine
 10
401.027014298199
 20
-46.8826506597781
 30
0.0
 11
399.2463472277047
 21
-45.85458204729105
 31
0.0
1001
REVIT
1002
{
1070
     1
1000
1650628
1002
}
1002
{
1070
     2
1000
-2000051
1002
}
1002
{
1070
     3
1000
-2000043
1002
}
  0
LINE
  5
153
330
70
100
AcDbEntity
  8
A-DETL-MEDM
100
AcDbLine
 10
424.6047365813129
 20
-60.49525496681198
 30
0.0
 11
414.2093267706014
 21
-54.49346231426132
 31
0.0
1001
REVIT
1002
{
1070
     1
1000
1650629
1002
}
1002
{
1070
     2
1000
-2000051
1002
}
1002
{
1070
     3
1000
-2000043
1002
}
  0
LINE
  5
154
330
70
100
AcDbEntity
  8
A-DETL-MEDM
100
AcDbLine
 10
407.497629891272
 20
-84.58496913407493
 30
0.0
 11
379.6118894154332
 21
-56.69922865823587
 31
0.0
1001
REVIT
1002
{
1070
     1
1000
1650664
1002
}
1002
{
1070
     2
1000
-2000051
1002
}
1002
{
1070
     3
1000
-2000043
1002
}
  0
LINE
  5
155
330
70
100
AcDbEntity
  8
A-DETL-MEDM
100
AcDbLine
 10
401.0270142981991
 20
-70.88265065977795
 30
0.0
 11
424.6047365813129
 21
-84.49525496681177
 31
0.0
1001
REVIT
1002
{
1070
     1
1000
1650671
1002
}
1002
{
1070
     2
1000
-2000051
1002
}
1002
{
1070
     3
1000
-2000043
1002
}
  0
LINE
  5
156
330
70
100
AcDbEntity
  8
A-DETL-MEDM
100
AcDbLine
 10
394.2630625829508
 20
-66.97748131619353
 30
0.0
 11
401.0270142981991
 21
-70.88265065977774
 31
0.0
1001
REVIT
1002
{
1070
     1
1000
1650672
1002
}
1002
{
1070
     2
1000
-2000051
1002
}
1002
{
1070
     3
1000
-2000043
1002
}
  0
LINE
  5
157
330
70
100
AcDbEntity
  8
A-DETL-MEDM
100
AcDbLine
 10
394.263062582951
 20
-71.35040182575384
 30
0.0
 11
394.263062582951
 21
-66.97748131619639
 31
0.0
1001
REVIT
1002
{
1070
     1
1000
1650673
1002
}
1002
{
1070
     2
1000
-2000051
1002
}
1002
{
1070
     3
1000
-2000043
1002
}
  0
LINE
  5
158
330
70
100
AcDbEntity
  8
A-DETL-MEDM
100
AcDbLine
 10
412.8158754397559
 20
-65.68895281329497
 30
0.0
 11
412.8158754397559
 21
-77.68895281329477
 31
0.0
1001
REVIT
1002
{
1070
     1
1000
1650674
1002
}
1002
{
1070
     2
1000
-2000051
1002
}
1002
{
1070
     3
1000
-2000043
1002
}
  0
ARC
  5
159
330
70
100
AcDbEntity
  8
A-DETL-MEDM
100
AcDbCircle
 10
374.311786225459
 20
-42.90155575946399
 30
0.0
 40
21.61794302416029
100
AcDbArc
 50
357.2845655169948
 51
1.459628751670226
1001
REVIT
1002
{
1070
     1
1000
1650675
1002
}
1002
{
1070
     2
1000
-2000051
1002
}
1002
{
1070
     3
1000
-2000043
1002
}
  0
ARC
  5
15A
330
70
100
AcDbEntity
  8
A-DETL-MEDM
100
AcDbCircle
 10
331.9092335104716
 20
92.11725603472187
 30
0.0
 40
20.78460969082642
100
AcDbArc
 50
119.9999999999998
 51
239.9999999999975
1001
REVIT
1002
{
1070
     1
1000
1650676
1002
}
1002
{
1070
     2
1000
-2000051
1002
}
1002
{
1070
     3
1000
-2000043
1002
}
  0
ARC
  5
15B
330
70
100
AcDbEntity
  8
A-DETL-MEDM
100
AcDbCircle
 10
373.4784528921248
 20
92.11725603472185
 30
0.0
 40
20.78460969082632
100
AcDbArc
 50
299.9999999999985
 51
60.00000000000042
1001
REVIT
1002
{
1070
     1
1000
1650677
1002
}
1002
{
1070
     2
1000
-2000051
1002
}
1002
{
1070
     3
1000
-2000043
1002
}
  0
ARC
  5
15C
330
70
100
AcDbEntity
  8
A-DETL-MEDM
100
AcDbCircle
 10
352.6938432012985
 20
128.1172560347217
 30
0.0
 40
62.35382907247991
100
AcDbArc
 50
239.9999999999985
 51
299.9999999999992
1001
REVIT
1002
{
1070
     1
1000
1650678
1002
}
1002
{
1070
     2
1000
-2000051
1002
}
1002
{
1070
     3
1000
-2000043
1002
}
  0
ARC
  5
15D
330
70
100
AcDbEntity
  8
A-DETL-MEDM
100
AcDbCircle
 10
352.6938432012983
 20
56.1172560347211
 30
0.0
 40
62.35382907247995
100
AcDbArc
 50
60.00000000000049
 51
119.9999999999997
1001
REVIT
1002
{
1070
     1
1000
1650679
1002
}
1002
{
1070
     2
1000
-2000051
1002
}
1002
{
1070
     3
1000
-2000043
1002
}
  0
LINE
  5
15E
330
70
100
AcDbEntity
  8
A-DETL-THIN
100
AcDbLine
 10
349.1822140098067
 20
-200.5389709966541
 30
0.0
 11
356.4266577069741
 21
-198.5978281583855
 31
0.0
1001
REVIT
1002
{
1070
     1
1000
1650680
1002
}
1002
{
1070
     2
1000
-2000051
1002
}
1002
{
1070
     3
1000
-2000042
1002
}
  0
LINE
  5
15F
330
70
100
AcDbEntity
  8
A-DETL-THIN
100
AcDbLine
 10
356.4266577069741
 20
-198.5978281583855
 30
0.0
 11
349.1822140098056
 21
-196.6566853201161
 31
0.0
1001
REVIT
1002
{
1070
     1
1000
1650681
1002
}
1002
{
1070
     2
1000
-2000051
1002
}
1002
{
1070
     3
1000
-2000042
1002
}
  0
LINE
  5
160
330
70
100
AcDbEntity
  8
A-DETL-THIN
100
AcDbLine
 10
349.1822140098055
 20
-196.6566853201161
 30
0.0
 11
356.4266577069746
 21
-194.7155424818471
 31
0.0
1001
REVIT
1002
{
1070
     1
1000
1650682
1002
}
1002
{
1070
     2
1000
-2000051
1002
}
1002
{
1070
     3
1000
-2000042
1002
}
  0
LINE
  5
161
330
70
100
AcDbEntity
  8
A-DETL-MEDM
100
AcDbLine
 10
413.3433013668171
 20
-43.81960382353875
 30
0.0
 11
414.2093267706014
 21
-43.31960382353876
 31
0.0
1001
REVIT
1002
{
1070
     1
1000
1650661
1002
}
1002
{
1070
     2
1000
-2000051
1002
}
1002
{
1070
     3
1000
-2000043
1002
}
  0
LINE
  5
162
330
70
100
AcDbEntity
  8
A-DETL-THIN
100
AcDbLine
 10
406.6316044874875
 20
-88.53204195206764
 30
0.0
 11
407.2811235403259
 21
-88.15704195206764
 31
0.0
1001
REVIT
1002
{
1070
     1
1000
1650662
1002
}
1002
{
1070
     2
1000
-2000051
1002
}
1002
{
1070
     3
1000
-2000042
1002
}
  0
LINE
  5
163
330
70
100
AcDbEntity
  8
A-DETL-MEDM
100
AcDbLine
 10
407.497629891272
 20
-84.58496913407493
 30
0.0
 11
407.497629891272
 21
-86.31616999455589
 31
0.0
1001
REVIT
1002
{
1070
     1
1000
1650663
1002
}
1002
{
1070
     2
1000
-2000051
1002
}
1002
{
1070
     3
1000
-2000043
1002
}
  0
LINE
  5
164
330
70
100
AcDbEntity
  8
A-DETL-MEDM
100
AcDbLine
 10
407.497629891272
 20
-86.31616999455589
 30
0.0
 11
405.9330473289725
 21
-85.4128578310429
 31
0.0
1001
REVIT
1002
{
1070
     1
1000
1650665
1002
}
1002
{
1070
     2
1000
-2000051
1002
}
1002
{
1070
     3
1000
-2000043
1002
}
  0
LINE
  5
165
330
70
100
AcDbEntity
  8
A-DETL-MEDM
100
AcDbLine
 10
405.9330473289725
 20
-85.4128578310429
 30
0.0
 11
405.9330473289725
 21
-99.36054737927449
 31
0.0
1001
REVIT
1002
{
1070
     1
1000
1650666
1002
}
1002
{
1070
     2
1000
-2000051
1002
}
1002
{
1070
     3
1000
-2000043
1002
}
  0
LINE
  5
166
330
70
100
AcDbEntity
  8
A-DETL-MEDM
100
AcDbLine
 10
407.497629891272
 20
-86.31616999455589
 30
0.0
 11
378.3964721750458
 21
-57.21501227832951
 31
0.0
1001
REVIT
1002
{
1070
     1
1000
1650667
1002
}
1002
{
1070
     2
1000
-2000051
1002
}
1002
{
1070
     3
1000
-2000043
1002
}
  0
LINE
  5
167
330
70
100
AcDbEntity
  8
A-DETL-MEDM
100
AcDbLine
 10
405.9330473289725
 20
-85.4128578310429
 30
0.0
 11
377.9269694800561
 21
-57.40677998212622
 31
0.0
1001
REVIT
1002
{
1070
     1
1000
1650668
1002
}
1002
{
1070
     2
1000
-2000051
1002
}
1002
{
1070
     3
1000
-2000043
1002
}
  0
LINE
  5
168
330
70
100
AcDbEntity
  8
A-DETL-THIN
100
AcDbLine
 10
405.9330473289726
 20
-99.36054737927456
 30
0.0
 11
404.6830473289725
 21
-98.6388595427875
 31
0.0
1001
REVIT
1002
{
1070
     1
1000
1650669
1002
}
1002
{
1070
     2
1000
-2000051
1002
}
1002
{
1070
     3
1000
-2000042
1002
}
  0
LINE
  5
169
330
70
100
AcDbEntity
  8
A-DETL-MEDM
100
AcDbLine
 10
404.6830473289725
 20
-98.6388595427875
 30
0.0
 11
366.8514427721487
 21
-60.80725498596339
 31
0.0
1001
REVIT
1002
{
1070
     1
1000
1650670
1002
}
1002
{
1070
     2
1000
-2000051
1002
}
1002
{
1070
     3
1000
-2000043
1002
}
  0
MTEXT
  5
16C
330
70
100
AcDbEntity
  8
G-ANNO-TEXT
 62
     7
100
AcDbMText
 10
455.7727322174551
 20
-73.17457569898938
 30
0.0
 40
5.25
 41
16.21026141732283
 46
0.0
 71
     1
 72
     1
  1
1.
  7
RomanD_B
 73
     2
 44
1.0
 90
        3
 63
     9
421
 13158600
 45
1.25
441
        0
1001
REVIT
1002
{
1070
     1
1000
1650630
1002
}
1002
{
1070
     5
1000
1531977
1002
}
1002
{
1070
     2
1000
-2000300
1002
}
  0
MTEXT
  5
16D
330
70
100
AcDbEntity
  8
G-ANNO-TEXT
 62
     7
100
AcDbMText
 10
455.7727322174551
 20
-93.42457569898938
 30
0.0
 40
5.25
 41
16.21026141732283
 46
0.0
 71
     1
 72
     1
  1
2.
  7
RomanD_B
 73
     2
 44
1.0
 90
        3
 63
     9
421
 13158600
 45
1.25
441
        0
1001
REVIT
1002
{
1070
     1
1000
1650630
1002
}
1002
{
1070
     5
1000
1531977
1002
}
1002
{
1070
     2
1000
-2000300
1002
}
  0
MTEXT
  5
16E
330
70
100
AcDbEntity
  8
G-ANNO-TEXT
 62
     7
100
AcDbMText
 10
455.7727322174551
 20
-113.6745756989893
 30
0.0
 40
5.25
 41
16.21026141732283
 46
0.0
 71
     1
 72
     1
  1
3.
  7
RomanD_B
 73
     2
 44
1.0
 90
        3
 63
     9
421
 13158600
 45
1.25
441
        0
1001
REVIT
1002
{
1070
     1
1000
1650630
1002
}
1002
{
1070
     5
1000
1531977
1002
}
1002
{
1070
     2
1000
-2000300
1002
}
  0
MTEXT
  5
16F
330
70
100
AcDbEntity
  8
G-ANNO-TEXT
 62
     7
100
AcDbMText
 10
456.5380865481637
 20
-133.9245756989893
 30
0.0
 40
5.25
 41
16.19308346456693
 46
0.0
 71
     1
 72
     1
  1
A.
  7
RomanD_B
 73
     2
 44
1.0
 90
        3
 63
     9
421
 13158600
 45
1.25
441
        0
1001
REVIT
1002
{
1070
     1
1000
1650630
1002
}
1002
{
1070
     5
1000
1531977
1002
}
1002
{
1070
     2
1000
-2000300
1002
}
  0
MTEXT
  5
170
330
70
100
AcDbEntity
  8
G-ANNO-TEXT
 62
     7
100
AcDbMText
 10
456.5380865481637
 20
-154.1745756989894
 30
0.0
 40
5.25
 41
16.19308346456693
 46
0.0
 71
     1
 72
     1
  1
B.
  7
RomanD_B
 73
     2
 44
1.0
 90
        3
 63
     9
421
 13158600
 45
1.25
441
        0
1001
REVIT
1002
{
1070
     1
1000
1650630
1002
}
1002
{
1070
     5
1000
1531977
1002
}
1002
{
1070
     2
1000
-2000300
1002
}
  0
MTEXT
  5
171
330
70
100
AcDbEntity
  8
G-ANNO-TEXT
 62
     7
100
AcDbMText
 10
456.5380865481637
 20
-174.4245756989894
 30
0.0
 40
5.25
 41
16.49656062992126
 46
0.0
 71
     1
 72
     1
  1
C.
  7
RomanD_B
 73
     2
 44
1.0
 90
        3
 63
     9
421
 13158600
 45
1.25
441
        0
1001
REVIT
1002
{
1070
     1
1000
1650630
1002
}
1002
{
1070
     5
1000
1531977
1002
}
1002
{
1070
     2
1000
-2000300
1002
}
  0
MTEXT
  5
172
330
70
100
AcDbEntity
  8
G-ANNO-TEXT
 62
     7
100
AcDbMText
 10
456.5380865481637
 20
-184.5495756989894
 30
0.0
 40
5.25
 41
16.49656062992126
 46
0.0
 71
     1
 72
     1
  1
D.
  7
RomanD_B
 73
     2
 44
1.0
 90
        3
 63
     9
421
 13158600
 45
1.25
441
        0
1001
REVIT
1002
{
1070
     1
1000
1650630
1002
}
1002
{
1070
     5
1000
1531977
1002
}
1002
{
1070
     2
1000
-2000300
1002
}
  0
MTEXT
  5
173
330
70
100
AcDbEntity
  8
G-ANNO-TEXT
 62
     7
100
AcDbMText
 10
455.7727322174551
 20
-204.7995756989894
 30
0.0
 40
5.25
 41
16.21026141732283
 46
0.0
 71
     1
 72
     1
  1
4.
  7
RomanD_B
 73
     2
 44
1.0
 90
        3
 63
     9
421
 13158600
 45
1.25
441
        0
1001
REVIT
1002
{
1070
     1
1000
1650630
1002
}
1002
{
1070
     5
1000
1531977
1002
}
1002
{
1070
     2
1000
-2000300
1002
}
  0
MTEXT
  5
174
330
70
100
AcDbEntity
  8
G-ANNO-TEXT
 62
     7
100
AcDbMText
 10
455.7727322174551
 20
-63.04957569898938
 30
0.0
 40
5.25
 41
34.239
 46
0.0
 71
     1
 72
     1
  1
\LNOTES:
  7
RomanD_B
 73
     2
 44
1.0
 90
        3
 63
     9
421
 13158600
 45
1.25
441
        0
1001
REVIT
1002
{
1070
     1
1000
1650630
1002
}
1002
{
1070
     5
1000
1531977
1002
}
1002
{
1070
     2
1000
-2000300
1002
}
  0
MTEXT
  5
175
330
70
100
AcDbEntity
  8
G-ANNO-TEXT
 62
     7
100
AcDbMText
 10
469.1477322174551
 20
-73.17457569898938
 30
0.0
 40
5.25
 41
253.914
 46
0.0
 71
     1
 72
     1
  1
BRACKETS TO BE SIZED FOR 12 FEET OF DUCT, 
  7
RomanD_B
 73
     2
 44
1.0
 90
        3
 63
     9
421
 13158600
 45
1.25
441
        0
1001
REVIT
1002
{
1070
     1
1000
1650630
1002
}
1002
{
1070
     5
1000
1531977
1002
}
1002
{
1070
     2
1000
-2000300
1002
}
  0
MTEXT
  5
176
330
70
100
AcDbEntity
  8
G-ANNO-TEXT
 62
     7
100
AcDbMText
 10
456.5227322174551
 20
-83.29957569898938
 30
0.0
 40
5.25
 41
47.26799999999999
 46
0.0
 71
     1
 72
     1
  1
MAXIMUM.
  7
RomanD_B
 73
     2
 44
1.0
 90
        3
 63
     9
421
 13158600
 45
1.25
441
        0
1001
REVIT
1002
{
1070
     1
1000
1650630
1002
}
1002
{
1070
     5
1000
1531977
1002
}
1002
{
1070
     2
1000
-2000300
1002
}
  0
MTEXT
  5
177
330
70
100
AcDbEntity
  8
G-ANNO-TEXT
 62
     7
100
AcDbMText
 10
469.1477322174551
 20
-93.42457569898938
 30
0.0
 40
5.25
 41
292.2435
 46
0.0
 71
     1
 72
     1
  1
LOCATE DUCTS AGAINST WALL OR MAXIMUM OF 2" AWAY 
  7
RomanD_B
 73
     2
 44
1.0
 90
        3
 63
     9
421
 13158600
 45
1.25
441
        0
1001
REVIT
1002
{
1070
     1
1000
1650630
1002
}
1002
{
1070
     5
1000
1531977
1002
}
1002
{
1070
     2
1000
-2000300
1002
}
  0
MTEXT
  5
178
330
70
100
AcDbEntity
  8
G-ANNO-TEXT
 62
     7
100
AcDbMText
 10
456.5227322174551
 20
-103.5495756989893
 30
0.0
 40
5.25
 41
60.44850000000001
 46
0.0
 71
     1
 72
     1
  1
FROM WALL.
  7
RomanD_B
 73
     2
 44
1.0
 90
        3
 63
     9
421
 13158600
 45
1.25
441
        0
1001
REVIT
1002
{
1070
     1
1000
1650630
1002
}
1002
{
1070
     5
1000
1531977
1002
}
1002
{
1070
     2
1000
-2000300
1002
}
  0
MTEXT
  5
179
330
70
100
AcDbEntity
  8
G-ANNO-TEXT
 62
     7
100
AcDbMText
 10
469.1477322174551
 20
-113.6745756989893
 30
0.0
 40
5.25
 41
273.912
 46
0.0
 71
     1
 72
     1
  1
EACH WALL ANCHOR SHALL SATISFY THE FOLLOWING 
  7
RomanD_B
 73
     2
 44
1.0
 90
        3
 63
     9
421
 13158600
 45
1.25
441
        0
1001
REVIT
1002
{
1070
     1
1000
1650630
1002
}
1002
{
1070
     5
1000
1531977
1002
}
1002
{
1070
     2
1000
-2000300
1002
}
  0
MTEXT
  5
17A
330
70
100
AcDbEntity
  8
G-ANNO-TEXT
 62
     7
100
AcDbMText
 10
456.5227322174551
 20
-123.7995756989894
 30
0.0
 40
5.25
 41
226.4925
 46
0.0
 71
     1
 72
     1
  1
CRITERIA UNLESS OTHER ANALYSIS IS MADE:
  7
RomanD_B
 73
     2
 44
1.0
 90
        3
 63
     9
421
 13158600
 45
1.25
441
        0
1001
REVIT
1002
{
1070
     1
1000
1650630
1002
}
1002
{
1070
     5
1000
1531977
1002
}
1002
{
1070
     2
1000
-2000300
1002
}
  0
MTEXT
  5
17B
330
70
100
AcDbEntity
  8
G-ANNO-TEXT
 62
     7
100
AcDbMText
 10
469.8977322174551
 20
-133.9245756989893
 30
0.0
 40
5.25
 41
289.062
 46
0.0
 71
     1
 72
     1
  1
TENSILE LOAD = 3/8 * DUCT WEIGHT; SAFETY FACTOR 
  7
RomanD_B
 73
     2
 44
1.0
 90
        3
 63
     9
421
 13158600
 45
1.25
441
        0
1001
REVIT
1002
{
1070
     1
1000
1650630
1002
}
1002
{
1070
     5
1000
1531977
1002
}
1002
{
1070
     2
1000
-2000300
1002
}
  0
MTEXT
  5
17C
330
70
100
AcDbEntity
  8
G-ANNO-TEXT
 62
     7
100
AcDbMText
 10
457.2727322174551
 20
-144.0495756989894
 30
0.0
 40
5.25
 41
28.482
 46
0.0
 71
     1
 72
     1
  1
OF 4.
  7
RomanD_B
 73
     2
 44
1.0
 90
        3
 63
     9
421
 13158600
 45
1.25
441
        0
1001
REVIT
1002
{
1070
     1
1000
1650630
1002
}
1002
{
1070
     5
1000
1531977
1002
}
1002
{
1070
     2
1000
-2000300
1002
}
  0
MTEXT
  5
17D
330
70
100
AcDbEntity
  8
G-ANNO-TEXT
 62
     7
100
AcDbMText
 10
469.8977322174551
 20
-154.1745756989894
 30
0.0
 40
5.25
 41
291.3345
 46
0.0
 71
     1
 72
     1
  1
SHEAR LOAD = 1/2* DUCT WEIGHT; SAFETY FACTOR OF 
  7
RomanD_B
 73
     2
 44
1.0
 90
        3
 63
     9
421
 13158600
 45
1.25
441
        0
1001
REVIT
1002
{
1070
     1
1000
1650630
1002
}
1002
{
1070
     5
1000
1531977
1002
}
1002
{
1070
     2
1000
-2000300
1002
}
  0
MTEXT
  5
17E
330
70
100
AcDbEntity
  8
G-ANNO-TEXT
 62
     7
100
AcDbMText
 10
457.2727322174551
 20
-164.2995756989894
 30
0.0
 40
5.25
 41
9.695999999999999
 46
0.0
 71
     1
 72
     1
  1
4.
  7
RomanD_B
 73
     2
 44
1.0
 90
        3
 63
     9
421
 13158600
 45
1.25
441
        0
1001
REVIT
1002
{
1070
     1
1000
1650630
1002
}
1002
{
1070
     5
1000
1531977
1002
}
1002
{
1070
     2
1000
-2000300
1002
}
  0
MTEXT
  5
17F
330
70
100
AcDbEntity
  8
G-ANNO-TEXT
 62
     7
100
AcDbMText
 10
470.147732217455
 20
-174.4245756989893
 30
0.0
 40
5.25
 41
174.2249999999999
 46
0.0
 71
     1
 72
     1
  1
CONTRACTOR TO CONFIRM WEIGHT.
  7
RomanD_B
 73
     2
 44
1.0
 90
        3
 63
     9
421
 13158600
 45
1.25
441
        0
1001
REVIT
1002
{
1070
     1
1000
1650630
1002
}
1002
{
1070
     5
1000
1531977
1002
}
1002
{
1070
     2
1000
-2000300
1002
}
  0
MTEXT
  5
180
330
70
100
AcDbEntity
  8
G-ANNO-TEXT
 62
     7
100
AcDbMText
 10
470.147732217455
 20
-184.5495756989894
 30
0.0
 40
5.25
 41
265.5795
 46
0.0
 71
     1
 72
     1
  1
1/4" x 2-1/4" TAPCON SS HEX HEAD CONCRETE 
  7
RomanD_B
 73
     2
 44
1.0
 90
        3
 63
     9
421
 13158600
 45
1.25
441
        0
1001
REVIT
1002
{
1070
     1
1000
1650630
1002
}
1002
{
1070
     5
1000
1531977
1002
}
1002
{
1070
     2
1000
-2000300
1002
}
  0
MTEXT
  5
181
330
70
100
AcDbEntity
  8
G-ANNO-TEXT
 62
     7
100
AcDbMText
 10
457.2727322174551
 20
-194.6745756989893
 30
0.0
 40
5.25
 41
55.14599999999998
 46
0.0
 71
     1
 72
     1
  1
ANCHORS. 
  7
RomanD_B
 73
     2
 44
1.0
 90
        3
 63
     9
421
 13158600
 45
1.25
441
        0
1001
REVIT
1002
{
1070
     1
1000
1650630
1002
}
1002
{
1070
     5
1000
1531977
1002
}
1002
{
1070
     2
1000
-2000300
1002
}
  0
MTEXT
  5
182
330
70
100
AcDbEntity
  8
G-ANNO-TEXT
 62
     7
100
AcDbMText
 10
469.1477322174551
 20
-204.7995756989894
 30
0.0
 40
5.25
 41
213.918
 46
0.0
 71
     1
 72
     1
  1
CONSULT WITH ENGINEER FOR QUESTIONS.
  7
RomanD_B
 73
     2
 44
1.0
 90
        3
 63
     9
421
 13158600
 45
1.25
441
        0
1001
REVIT
1002
{
1070
     1
1000
1650630
1002
}
1002
{
1070
     5
1000
1531977
1002
}
1002
{
1070
     2
1000
-2000300
1002
}
  0
LINE
  5
183
330
70
100
AcDbEntity
  8
G-ANNO-TEXT
 62
   250
370
    20
100
AcDbLine
 10
368.5743779306789
 20
-182.3003955291035
 30
0.0
 11
368.8697059707956
 21
-188.5050280773534
 31
0.0
1001
REVIT
1002
{
1070
     1
1000
1650651
1002
}
1002
{
1070
     5
1000
1165269
1002
}
1002
{
1070
     2
1000
-2000300
1002
}
  0
LINE
  5
184
330
70
100
AcDbEntity
  8
G-ANNO-TEXT
 62
   250
370
    20
100
AcDbLine
 10
368.8697059707956
 20
-188.5050280773534
 30
0.0
 11
371.9324557899948
 21
-187.5261009169774
 31
0.0
1001
REVIT
1002
{
1070
     1
1000
1650651
1002
}
1002
{
1070
     5
1000
1165269
1002
}
1002
{
1070
     2
1000
-2000300
1002
}
  0
LINE
  5
185
330
70
100
AcDbEntity
  8
G-ANNO-TEXT
 62
   250
370
    20
100
AcDbLine
 10
371.9324557899948
 20
-187.5261009169774
 30
0.0
 11
368.5743779306789
 21
-182.3003955291035
 31
0.0
1001
REVIT
1002
{
1070
     1
1000
1650651
1002
}
1002
{
1070
     5
1000
1165269
1002
}
1002
{
1070
     2
1000
-2000300
1002
}
  0
HATCH
  5
186
330
70
100
AcDbEntity
  8
G-ANNO-TEXT
 62
     7
370
    20
100
AcDbHatch
 10
0.0
 20
0.0
 30
0.0
210
0.0
220
0.0
230
1.0
  2
SOLID
 70
     1
 71
     0
 91
        1
 92
        1
 93
        3
 72
     1
 10
368.5743779306789
 20
-182.3003955291035
 11
368.8697059707956
 21
-188.5050280773534
 72
     1
 10
368.8697059707956
 20
-188.5050280773534
 11
371.9324557899948
 21
-187.5261009169774
 72
     1
 10
371.9324557899948
 20
-187.5261009169774
 11
368.5743779306789
 21
-182.3003955291035
 97
        0
 75
     0
 76
     1
 98
        1
 10
0.0
 20
0.0
450
        0
451
        0
460
0.0
461
0.0
452
        0
462
0.0
453
        0
470

1001
REVIT
1002
{
1070
     1
1000
1650651
1002
}
1002
{
1070
     5
1000
1165269
1002
}
1002
{
1070
     2
1000
-2000300
1002
}
  0
LINE
  5
187
330
70
100
AcDbEntity
  8
G-ANNO-TEXT
 62
   250
370
    20
100
AcDbLine
 10
381.0889025417212
 20
-221.4543382750684
 30
0.0
 11
401.4469811220279
 21
-221.4543382750684
 31
0.0
1001
REVIT
1002
{
1070
     1
1000
1650651
1002
}
1002
{
1070
     5
1000
1165269
1002
}
1002
{
1070
     2
1000
-2000300
1002
}
  0
LINE
  5
188
330
70
100
AcDbEntity
  8
G-ANNO-TEXT
 62
   250
370
    20
100
AcDbLine
 10
368.5743779306789
 20
-182.3003955291035
 30
0.0
 11
381.0889025417212
 21
-221.4543382750684
 31
0.0
1001
REVIT
1002
{
1070
     1
1000
1650651
1002
}
1002
{
1070
     5
1000
1165269
1002
}
1002
{
1070
     2
1000
-2000300
1002
}
  0
MTEXT
  5
189
330
70
100
AcDbEntity
  8
G-ANNO-TEXT
 62
     7
370
    20
100
AcDbMText
 10
401.4469811220279
 20
-218.8293382750684
 30
0.0
 40
5.25
 41
101.9595
 46
0.0
 71
     1
 72
     1
  1
EXHAUST DUCTWORK
  7
RomanD_B
 73
     2
 44
1.0
1001
REVIT
1002
{
1070
     1
1000
1650651
1002
}
1002
{
1070
     5
1000
1165269
1002
}
1002
{
1070
     2
1000
-2000300
1002
}
  0
LINE
  5
18A
330
70
100
AcDbEntity
  8
G-ANNO-TEXT
 62
   250
370
    20
100
AcDbLine
 10
413.8630300253157
 20
-49.08073356803533
 30
0.0
 11
420.0600386347579
 21
-48.65439097741092
 31
0.0
1001
REVIT
1002
{
1070
     1
1000
1650652
1002
}
1002
{
1070
     5
1000
1165269
1002
}
1002
{
1070
     2
1000
-2000300
1002
}
  0
LINE
  5
18B
330
70
100
AcDbEntity
  8
G-ANNO-TEXT
 62
   250
370
    20
100
AcDbLine
 10
420.0600386347579
 20
-48.65439097741092
 30
0.0
 11
419.0166256132513
 21
-45.61300574911821
 31
0.0
1001
REVIT
1002
{
1070
     1
1000
1650652
1002
}
1002
{
1070
     5
1000
1165269
1002
}
1002
{
1070
     2
1000
-2000300
1002
}
  0
LINE
  5
18C
330
70
100
AcDbEntity
  8
G-ANNO-TEXT
 62
   250
370
    20
100
AcDbLine
 10
419.0166256132513
 20
-45.61300574911821
 30
0.0
 11
413.8630300253157
 21
-49.08073356803533
 31
0.0
1001
REVIT
1002
{
1070
     1
1000
1650652
1002
}
1002
{
1070
     5
1000
1165269
1002
}
1002
{
1070
     2
1000
-2000300
1002
}
  0
HATCH
  5
18D
330
70
100
AcDbEntity
  8
G-ANNO-TEXT
 62
     7
370
    20
100
AcDbHatch
 10
0.0
 20
0.0
 30
0.0
210
0.0
220
0.0
230
1.0
  2
SOLID
 70
     1
 71
     0
 91
        1
 92
        1
 93
        3
 72
     1
 10
413.8630300253157
 20
-49.08073356803533
 11
420.0600386347579
 21
-48.65439097741092
 72
     1
 10
420.0600386347579
 20
-48.65439097741092
 11
419.0166256132513
 21
-45.61300574911821
 72
     1
 10
419.0166256132513
 20
-45.61300574911821
 11
413.8630300253157
 21
-49.08073356803533
 97
        0
 75
     0
 76
     1
 98
        1
 10
0.0
 20
0.0
450
        0
451
        0
460
0.0
461
0.0
452
        0
462
0.0
453
        0
470

1001
REVIT
1002
{
1070
     1
1000
1650652
1002
}
1002
{
1070
     5
1000
1165269
1002
}
1002
{
1070
     2
1000
-2000300
1002
}
  0
LINE
  5
18E
330
70
100
AcDbEntity
  8
G-ANNO-TEXT
 62
   250
370
    20
100
AcDbLine
 10
482.6969550573354
 20
-25.4657659435182
 30
0.0
 11
498.2345528083262
 21
-25.46576594351819
 31
0.0
1001
REVIT
1002
{
1070
     1
1000
1650652
1002
}
1002
{
1070
     5
1000
1165269
1002
}
1002
{
1070
     2
1000
-2000300
1002
}
  0
LINE
  5
18F
330
70
100
AcDbEntity
  8
G-ANNO-TEXT
 62
   250
370
    20
100
AcDbLine
 10
413.8630300253157
 20
-49.08073356803533
 30
0.0
 11
482.6969550573354
 21
-25.4657659435182
 31
0.0
1001
REVIT
1002
{
1070
     1
1000
1650652
1002
}
1002
{
1070
     5
1000
1165269
1002
}
1002
{
1070
     2
1000
-2000300
1002
}
  0
LINE
  5
190
330
70
100
AcDbEntity
  8
G-ANNO-TEXT
 62
   250
370
    20
100
AcDbLine
 10
414.2730486507765
 20
-84.13590099952244
 30
0.0
 11
419.8743858664241
 21
-81.45081159566954
 31
0.0
1001
REVIT
1002
{
1070
     1
1000
1650652
1002
}
1002
{
1070
     5
1000
1165269
1002
}
1002
{
1070
     2
1000
-2000300
1002
}
  0
LINE
  5
191
330
70
100
AcDbEntity
  8
G-ANNO-TEXT
 62
   250
370
    20
100
AcDbLine
 10
419.8743858664241
 20
-81.45081159566954
 30
0.0
 11
417.7814042727641
 21
-79.00987675652963
 31
0.0
1001
REVIT
1002
{
1070
     1
1000
1650652
1002
}
1002
{
1070
     5
1000
1165269
1002
}
1002
{
1070
     2
1000
-2000300
1002
}
  0
LINE
  5
192
330
70
100
AcDbEntity
  8
G-ANNO-TEXT
 62
   250
370
    20
100
AcDbLine
 10
417.7814042727641
 20
-79.00987675652963
 30
0.0
 11
414.2730486507765
 21
-84.13590099952244
 31
0.0
1001
REVIT
1002
{
1070
     1
1000
1650652
1002
}
1002
{
1070
     5
1000
1165269
1002
}
1002
{
1070
     2
1000
-2000300
1002
}
  0
HATCH
  5
193
330
70
100
AcDbEntity
  8
G-ANNO-TEXT
 62
     7
370
    20
100
AcDbHatch
 10
0.0
 20
0.0
 30
0.0
210
0.0
220
0.0
230
1.0
  2
SOLID
 70
     1
 71
     0
 91
        1
 92
        1
 93
        3
 72
     1
 10
414.2730486507765
 20
-84.13590099952244
 11
419.8743858664241
 21
-81.45081159566954
 72
     1
 10
419.8743858664241
 20
-81.45081159566954
 11
417.7814042727641
 21
-79.00987675652963
 72
     1
 10
417.7814042727641
 20
-79.00987675652963
 11
414.2730486507765
 21
-84.13590099952244
 97
        0
 75
     0
 76
     1
 98
        1
 10
0.0
 20
0.0
450
        0
451
        0
460
0.0
461
0.0
452
        0
462
0.0
453
        0
470

1001
REVIT
1002
{
1070
     1
1000
1650652
1002
}
1002
{
1070
     5
1000
1165269
1002
}
1002
{
1070
     2
1000
-2000300
1002
}
  0
LINE
  5
194
330
70
100
AcDbEntity
  8
G-ANNO-TEXT
 62
   250
370
    20
100
AcDbLine
 10
482.6969550573354
 20
-25.4657659435182
 30
0.0
 11
498.2345528083262
 21
-25.46576594351819
 31
0.0
1001
REVIT
1002
{
1070
     1
1000
1650652
1002
}
1002
{
1070
     5
1000
1165269
1002
}
1002
{
1070
     2
1000
-2000300
1002
}
  0
LINE
  5
195
330
70
100
AcDbEntity
  8
G-ANNO-TEXT
 62
   250
370
    20
100
AcDbLine
 10
414.2730486507765
 20
-84.13590099952244
 30
0.0
 11
482.6969550573354
 21
-25.4657659435182
 31
0.0
1001
REVIT
1002
{
1070
     1
1000
1650652
1002
}
1002
{
1070
     5
1000
1165269
1002
}
1002
{
1070
     2
1000
-2000300
1002
}
  0
MTEXT
  5
196
330
70
100
AcDbEntity
  8
G-ANNO-TEXT
 62
     7
370
    20
100
AcDbMText
 10
498.2345528083262
 20
-22.84076594351819
 30
0.0
 40
5.25
 41
102.8685
 46
0.0
 71
     1
 72
     1
  1
ANCHORS ON BOTH 
  7
RomanD_B
 73
     2
 44
1.0
1001
REVIT
1002
{
1070
     1
1000
1650652
1002
}
1002
{
1070
     5
1000
1165269
1002
}
1002
{
1070
     2
1000
-2000300
1002
}
  0
MTEXT
  5
197
330
70
100
AcDbEntity
  8
G-ANNO-TEXT
 62
     7
370
    20
100
AcDbMText
 10
498.2345528083262
 20
-32.96576594351819
 30
0.0
 40
5.25
 41
102.7169999999999
 46
0.0
 71
     1
 72
     1
  1
SIDES OF EXHAUST 
  7
RomanD_B
 73
     2
 44
1.0
1001
REVIT
1002
{
1070
     1
1000
1650652
1002
}
1002
{
1070
     5
1000
1165269
1002
}
1002
{
1070
     2
1000
-2000300
1002
}
  0
MTEXT
  5
198
330
70
100
AcDbEntity
  8
G-ANNO-TEXT
 62
     7
370
    20
100
AcDbMText
 10
498.2345528083262
 20
-43.09076594351818
 30
0.0
 40
5.25
 41
24.9975
 46
0.0
 71
     1
 72
     1
  1
DUCT
  7
RomanD_B
 73
     2
 44
1.0
1001
REVIT
1002
{
1070
     1
1000
1650652
1002
}
1002
{
1070
     5
1000
1165269
1002
}
1002
{
1070
     2
1000
-2000300
1002
}
  0
LINE
  5
199
330
70
100
AcDbEntity
  8
G-ANNO-TEXT
 62
   250
370
    20
100
AcDbLine
 10
282.0780731479818
 20
-53.18510492261763
 30
0.0
 11
281.9434274786904
 21
-53.18510492261763
 31
0.0
1001
REVIT
1002
{
1070
     1
1000
1650653
1002
}
1002
{
1070
     5
1000
1165269
1002
}
1002
{
1070
     2
1000
-2000300
1002
}
  0
LINE
  5
19A
330
70
100
AcDbEntity
  8
G-ANNO-TEXT
 62
   250
370
    20
100
AcDbLine
 10
310.332223558299
 20
-44.01167946472242
 30
0.0
 11
304.2466772817489
 21
-45.25699477662098
 31
0.0
1001
REVIT
1002
{
1070
     1
1000
1650653
1002
}
1002
{
1070
     5
1000
1165269
1002
}
1002
{
1070
     2
1000
-2000300
1002
}
  0
LINE
  5
19B
330
70
100
AcDbEntity
  8
G-ANNO-TEXT
 62
   250
370
    20
100
AcDbLine
 10
304.2466772817489
 20
-45.25699477662098
 30
0.0
 11
305.6846435428501
 21
-48.13292729882335
 31
0.0
1001
REVIT
1002
{
1070
     1
1000
1650653
1002
}
1002
{
1070
     5
1000
1165269
1002
}
1002
{
1070
     2
1000
-2000300
1002
}
  0
LINE
  5
19C
330
70
100
AcDbEntity
  8
G-ANNO-TEXT
 62
   250
370
    20
100
AcDbLine
 10
305.6846435428501
 20
-48.13292729882335
 30
0.0
 11
310.332223558299
 21
-44.01167946472242
 31
0.0
1001
REVIT
1002
{
1070
     1
1000
1650653
1002
}
1002
{
1070
     5
1000
1165269
1002
}
1002
{
1070
     2
1000
-2000300
1002
}
  0
HATCH
  5
19D
330
70
100
AcDbEntity
  8
G-ANNO-TEXT
 62
     7
370
    20
100
AcDbHatch
 10
0.0
 20
0.0
 30
0.0
210
0.0
220
0.0
230
1.0
  2
SOLID
 70
     1
 71
     0
 91
        1
 92
        1
 93
        3
 72
     1
 10
310.332223558299
 20
-44.01167946472242
 11
304.2466772817489
 21
-45.25699477662098
 72
     1
 10
304.2466772817489
 20
-45.25699477662098
 11
305.6846435428501
 21
-48.13292729882335
 72
     1
 10
305.6846435428501
 20
-48.13292729882335
 11
310.332223558299
 21
-44.01167946472242
 97
        0
 75
     0
 76
     1
 98
        1
 10
0.0
 20
0.0
450
        0
451
        0
460
0.0
461
0.0
452
        0
462
0.0
453
        0
470

1001
REVIT
1002
{
1070
     1
1000
1650653
1002
}
1002
{
1070
     5
1000
1165269
1002
}
1002
{
1070
     2
1000
-2000300
1002
}
  0
LINE
  5
19E
330
70
100
AcDbEntity
  8
G-ANNO-TEXT
 62
   250
370
    20
100
AcDbLine
 10
291.9853726425086
 20
-53.18510492261763
 30
0.0
 11
282.0780731479818
 21
-53.18510492261763
 31
0.0
1001
REVIT
1002
{
1070
     1
1000
1650653
1002
}
1002
{
1070
     5
1000
1165269
1002
}
1002
{
1070
     2
1000
-2000300
1002
}
  0
LINE
  5
19F
330
70
100
AcDbEntity
  8
G-ANNO-TEXT
 62
   250
370
    20
100
AcDbLine
 10
310.332223558299
 20
-44.01167946472242
 30
0.0
 11
291.9853726425086
 21
-53.18510492261763
 31
0.0
1001
REVIT
1002
{
1070
     1
1000
1650653
1002
}
1002
{
1070
     5
1000
1165269
1002
}
1002
{
1070
     2
1000
-2000300
1002
}
  0
MTEXT
  5
1A0
330
70
100
AcDbEntity
  8
G-ANNO-TEXT
 62
     7
370
    20
100
AcDbMText
 10
250.4434274786905
 20
-50.56010492261763
 30
0.0
 40
5.25
 41
38.178
 46
0.0
 71
     1
 72
     1
  1
HANGER
  7
RomanD_B
 73
     2
 44
1.0
1001
REVIT
1002
{
1070
     1
1000
1650653
1002
}
1002
{
1070
     5
1000
1165269
1002
}
1002
{
1070
     2
1000
-2000300
1002
}
  0
LINE
  5
1A1
330
70
100
AcDbEntity
  8
G-ANNO-TEXT
 62
   250
370
    20
100
AcDbLine
 10
397.4603683900827
 20
-34.71246675486341
 30
0.0
 11
403.3905766287138
 21
-32.86386891959664
 31
0.0
1001
REVIT
1002
{
1070
     1
1000
1650683
1002
}
1002
{
1070
     5
1000
1165269
1002
}
1002
{
1070
     2
1000
-2000300
1002
}
  0
LINE
  5
1A2
330
70
100
AcDbEntity
  8
G-ANNO-TEXT
 62
   250
370
    20
100
AcDbLine
 10
403.3905766287138
 20
-32.86386891959664
 30
0.0
 11
401.6717804568357
 21
-30.14642994882589
 31
0.0
1001
REVIT
1002
{
1070
     1
1000
1650683
1002
}
1002
{
1070
     5
1000
1165269
1002
}
1002
{
1070
     2
1000
-2000300
1002
}
  0
LINE
  5
1A3
330
70
100
AcDbEntity
  8
G-ANNO-TEXT
 62
   250
370
    20
100
AcDbLine
 10
401.6717804568357
 20
-30.14642994882589
 30
0.0
 11
397.4603683900827
 21
-34.71246675486341
 31
0.0
1001
REVIT
1002
{
1070
     1
1000
1650683
1002
}
1002
{
1070
     5
1000
1165269
1002
}
1002
{
1070
     2
1000
-2000300
1002
}
  0
HATCH
  5
1A4
330
70
100
AcDbEntity
  8
G-ANNO-TEXT
 62
     7
370
    20
100
AcDbHatch
 10
0.0
 20
0.0
 30
0.0
210
0.0
220
0.0
230
1.0
  2
SOLID
 70
     1
 71
     0
 91
        1
 92
        1
 93
        3
 72
     1
 10
397.4603683900827
 20
-34.71246675486341
 11
403.3905766287138
 21
-32.86386891959664
 72
     1
 10
403.3905766287138
 20
-32.86386891959664
 11
401.6717804568357
 21
-30.14642994882589
 72
     1
 10
401.6717804568357
 20
-30.14642994882589
 11
397.4603683900827
 21
-34.71246675486341
 97
        0
 75
     0
 76
     1
 98
        1
 10
0.0
 20
0.0
450
        0
451
        0
460
0.0
461
0.0
452
        0
462
0.0
453
        0
470

1001
REVIT
1002
{
1070
     1
1000
1650683
1002
}
1002
{
1070
     5
1000
1165269
1002
}
1002
{
1070
     2
1000
-2000300
1002
}
  0
LINE
  5
1A5
330
70
100
AcDbEntity
  8
G-ANNO-TEXT
 62
   250
370
    20
100
AcDbLine
 10
482.6969550573354
 20
19.20017689360997
 30
0.0
 11
498.2345528083262
 21
19.20017689360997
 31
0.0
1001
REVIT
1002
{
1070
     1
1000
1650683
1002
}
1002
{
1070
     5
1000
1165269
1002
}
1002
{
1070
     2
1000
-2000300
1002
}
  0
LINE
  5
1A6
330
70
100
AcDbEntity
  8
G-ANNO-TEXT
 62
   250
370
    20
100
AcDbLine
 10
397.4603683900827
 20
-34.71246675486341
 30
0.0
 11
482.6969550573354
 21
19.20017689360997
 31
0.0
1001
REVIT
1002
{
1070
     1
1000
1650683
1002
}
1002
{
1070
     5
1000
1165269
1002
}
1002
{
1070
     2
1000
-2000300
1002
}
  0
MTEXT
  5
1A7
330
70
100
AcDbEntity
  8
G-ANNO-TEXT
 62
     7
370
    20
100
AcDbMText
 10
498.2345528083262
 20
21.82517689360997
 30
0.0
 40
5.25
 41
101.3534999999999
 46
0.0
 71
     1
 72
     1
  1
DO NOT PENETRATE 
  7
RomanD_B
 73
     2
 44
1.0
1001
REVIT
1002
{
1070
     1
1000
1650683
1002
}
1002
{
1070
     5
1000
1165269
1002
}
1002
{
1070
     2
1000
-2000300
1002
}
  0
MTEXT
  5
1A8
330
70
100
AcDbEntity
  8
G-ANNO-TEXT
 62
     7
370
    20
100
AcDbMText
 10
498.2345528083262
 20
11.70017689360997
 30
0.0
 40
5.25
 41
101.3534999999999
 46
0.0
 71
     1
 72
     1
  1
DUCT WITH SCREWS 
  7
RomanD_B
 73
     2
 44
1.0
1001
REVIT
1002
{
1070
     1
1000
1650683
1002
}
1002
{
1070
     5
1000
1165269
1002
}
1002
{
1070
     2
1000
-2000300
1002
}
  0
MTEXT
  5
1A9
330
70
100
AcDbEntity
  8
G-ANNO-TEXT
 62
     7
370
    20
100
AcDbMText
 10
498.2345528083262
 20
1.575176893609973
 30
0.0
 40
5.25
 41
49.08599999999998
 46
0.0
 71
     1
 72
     1
  1
OR BOLTS
  7
RomanD_B
 73
     2
 44
1.0
1001
REVIT
1002
{
1070
     1
1000
1650683
1002
}
1002
{
1070
     5
1000
1165269
1002
}
1002
{
1070
     2
1000
-2000300
1002
}
  0
ENDSEC
  0
SECTION
  2
OBJECTS
  0
DICTIONARY
  5
C
330
0
100
AcDbDictionary
281
     1
  3
ACAD_CIP_PREVIOUS_PRODUCT_INFO
350
79
  3
ACAD_COLOR
350
63
  3
ACAD_DETAILVIEWSTYLE
350
6A
  3
ACAD_GROUP
350
D
  3
ACAD_IMAGE_VARS
350
7A
  3
ACAD_LAYOUT
350
62
  3
ACAD_MATERIAL
350
10
  3
ACAD_MLEADERSTYLE
350
66
  3
ACAD_MLINESTYLE
350
5F
  3
ACAD_PLOTSETTINGS
350
61
  3
ACAD_PLOTSTYLENAME
350
E
  3
ACAD_SCALELIST
350
42
  3
ACAD_SECTIONVIEWSTYLE
350
68
  3
ACAD_TABLESTYLE
350
64
  3
ACAD_VISUALSTYLE
350
29
  3
ACDB_RECOMPOSE_DATA
350
1B5
  3
AcDbVariableDictionary
350
7B
  3
REVIT_DICTIONARY
350
1AA
  0
SUN
  5
1B2
330
57
100
AcDbSun
 90
        1
290
     1
 63
     7
421
 16777215
 40
0.3
291
     1
 91
  2460487
 92
 38588000
292
     0
 70
     1
 71
   128
280
     1
  0
DICTIONARY
  5
1AF
330
70
100
AcDbDictionary
280
     1
281
     1
  3
ACAD_SORTENTS
360
1B0
  0
XRECORD
  5
79
102
{ACAD_REACTORS
330
C
102
}
330
C
100
AcDbXrecord
280
     1
300
RVT
300
2024
300
RVT2024
  0
DICTIONARY
  5
63
102
{ACAD_REACTORS
330
C
102
}
330
C
100
AcDbDictionary
281
     1
  0
DICTIONARY
  5
6A
102
{ACAD_REACTORS
330
C
102
}
330
C
100
AcDbDictionary
281
     1
  3
Imperial24
350
6B
  0
DICTIONARY
  5
D
102
{ACAD_REACTORS
330
C
102
}
330
C
100
AcDbDictionary
281
     1
  0
RASTERVARIABLES
  5
7A
102
{ACAD_REACTORS
330
C
102
}
330
C
100
AcDbRasterVariables
 90
        0
 70
     0
 71
     1
 72
     5
  0
DICTIONARY
  5
62
102
{ACAD_REACTORS
330
C
102
}
330
C
100
AcDbDictionary
281
     1
  3
Layout1
350
6F
  3
Layout2
350
77
  3
Model
350
73
  0
DICTIONARY
  5
10
102
{ACAD_REACTORS
330
C
102
}
330
C
100
AcDbDictionary
281
     1
  3
ByBlock
350
19
  3
ByLayer
350
11
  3
Global
350
21
  0
DICTIONARY
  5
66
102
{ACAD_REACTORS
330
C
102
}
330
C
100
AcDbDictionary
281
     1
  3
Standard
350
67
  0
DICTIONARY
  5
5F
102
{ACAD_REACTORS
330
C
102
}
330
C
100
AcDbDictionary
281
     1
  3
Standard
350
60
  0
DICTIONARY
  5
61
102
{ACAD_REACTORS
330
C
102
}
330
C
100
AcDbDictionary
281
     1
  0
ACDBDICTIONARYWDFLT
  5
E
102
{ACAD_REACTORS
330
C
102
}
330
C
100
AcDbDictionary
281
     1
  3
Normal
350
F
100
AcDbDictionaryWithDefault
340
F
  0
DICTIONARY
  5
42
102
{ACAD_REACTORS
330
C
102
}
330
C
100
AcDbDictionary
281
     1
  3
A0
350
43
  3
A1
350
44
  3
A2
350
45
  3
A3
350
46
  3
A4
350
47
  3
A5
350
48
  3
A6
350
49
  3
A7
350
4A
  3
A8
350
4B
  3
A9
350
4C
  3
B0
350
4D
  3
B1
350
4E
  3
B2
350
4F
  3
B3
350
50
  3
B4
350
51
  3
B5
350
52
  3
B6
350
53
  0
DICTIONARY
  5
68
102
{ACAD_REACTORS
330
C
102
}
330
C
100
AcDbDictionary
281
     1
  3
Imperial24
350
69
  0
DICTIONARY
  5
64
102
{ACAD_REACTORS
330
C
102
}
330
C
100
AcDbDictionary
281
     1
  3
Standard
350
65
  0
DICTIONARY
  5
29
102
{ACAD_REACTORS
330
C
102
}
330
C
100
AcDbDictionary
281
     1
  3
2dWireframe
350
2F
  3
Basic
350
2E
  3
Brighten
350
35
  3
ColorChange
350
39
  3
Conceptual
350
32
  3
Dim
350
34
  3
EdgeColorOff
350
41
  3
Facepattern
350
38
  3
Flat
350
2A
  3
FlatWithEdges
350
2B
  3
Gouraud
350
2C
  3
GouraudWithEdges
350
2D
  3
Hidden
350
31
  3
JitterOff
350
3F
  3
Linepattern
350
37
  3
OverhangOff
350
40
  3
Realistic
350
33
  3
Shaded
350
3E
  3
Shaded with edges
350
3D
  3
Shades of Gray
350
3A
  3
Sketchy
350
3B
  3
Thicken
350
36
  3
Wireframe
350
30
  3
X-Ray
350
3C
  0
XRECORD
  5
1B5
102
{ACAD_REACTORS
330
C
102
}
330
C
100
AcDbXrecord
280
     1
 90
        1
330
65
  0
DICTIONARY
  5
7B
102
{ACAD_REACTORS
330
C
102
}
330
C
100
AcDbDictionary
281
     1
  3
CANNOSCALE
350
80
  3
CMLEADERSTYLE
350
7D
  3
CTABLESTYLE
350
7C
  3
CVIEWDETAILSTYLE
350
7E
  3
CVIEWSECTIONSTYLE
350
7F
  0
DICTIONARY
  5
1AA
102
{ACAD_REACTORS
330
C
102
}
330
C
100
AcDbDictionary
281
     1
  3
DRAWING_TOOL
350
1AE
  3
REVIT_CATEGORY_MAPPING
350
1AC
  3
REVIT_SUB_CATEGORY_MAPPING
350
1AD
  3
REVIT_TYPE_MAPPING
350
1AB
  0
SORTENTSTABLE
  5
1B0
102
{ACAD_REACTORS
330
1AF
102
}
330
1AF
100
AcDbSortentsTable
330
70
  0
ACDBDETAILVIEWSTYLE
  5
6B
102
{ACAD_REACTORS
330
6A
102
}
330
6A
100
AcDbModelDocViewStyle
 70
     0
  3
Imperial24
290
     1
300
Imperial24
 90
        0
100
AcDbDetailViewStyle
 70
     0
 71
     0
 90
        3
 71
     1
340
55
 62
   256
 40
0.24
340
0
 62
   256
 40
0.24
300

 40
0.36
280
     3
 71
     2
340
5D
 90
       25
 62
   256
 71
     3
340
55
 62
   256
 40
0.24
 90
        1
 40
0.75
 90
        1
300
%<\AcVar ViewType \f "%tc1">% %<\AcVar ViewDetailId>%\PSCALE %<\AcVar ViewScale \f "%sn">%
 71
     4
340
5D
 90
       25
 62
   256
340
5D
 90
       25
 62
   256
280
     0
  0
LAYOUT
  5
6F
102
{ACAD_REACTORS
330
62
102
}
330
62
100
AcDbPlotSettings
  1

  2

  4

  6

 40
0.0
 41
0.0
 42
0.0
 43
0.0
 44
0.0
 45
0.0
 46
0.0
 47
0.0
 48
0.0
 49
0.0
140
0.0
141
0.0
142
1.0
143
1.0
 70
   688
 72
     0
 73
     0
 74
     5
  7

 75
    16
147
1.0
 76
     0
 77
     2
 78
   300
148
0.0
149
0.0
100
AcDbLayout
  1
Layout1
 70
     1
 71
     1
 10
0.0
 20
0.0
 11
12.0
 21
9.0
 12
0.0
 22
0.0
 32
0.0
 14
0.0
 24
0.0
 34
0.0
 15
0.0
 25
0.0
 35
0.0
146
0.0
 13
0.0
 23
0.0
 33
0.0
 16
1.0
 26
0.0
 36
0.0
 17
0.0
 27
1.0
 37
0.0
 76
     0
330
6C
  0
LAYOUT
  5
77
102
{ACAD_REACTORS
330
62
102
}
330
62
100
AcDbPlotSettings
  1

  2

  4

  6

 40
0.0
 41
0.0
 42
0.0
 43
0.0
 44
0.0
 45
0.0
 46
0.0
 47
0.0
 48
0.0
 49
0.0
140
0.0
141
0.0
142
1.0
143
1.0
 70
   688
 72
     0
 73
     0
 74
     5
  7

 75
    16
147
1.0
 76
     0
 77
     2
 78
   300
148
0.0
149
0.0
100
AcDbLayout
  1
Layout2
 70
     1
 71
     2
 10
0.0
 20
0.0
 11
12.0
 21
9.0
 12
0.0
 22
0.0
 32
0.0
 14
0.0
 24
0.0
 34
0.0
 15
0.0
 25
0.0
 35
0.0
146
0.0
 13
0.0
 23
0.0
 33
0.0
 16
1.0
 26
0.0
 36
0.0
 17
0.0
 27
1.0
 37
0.0
 76
     0
330
74
  0
LAYOUT
  5
73
102
{ACAD_REACTORS
330
62
102
}
330
62
100
AcDbPlotSettings
  1

  2

  4

  6

 40
0.0
 41
0.0
 42
0.0
 43
0.0
 44
0.0
 45
0.0
 46
0.0
 47
0.0
 48
0.0
 49
0.0
140
0.0
141
0.0
142
1.0
143
1.0
 70
  1712
 72
     0
 73
     0
 74
     0
  7

 75
     0
147
1.0
 76
     0
 77
     2
 78
   300
148
0.0
149
0.0
100
AcDbLayout
  1
Model
 70
     1
 71
     0
 10
0.0
 20
0.0
 11
12.0
 21
9.0
 12
0.0
 22
0.0
 32
0.0
 14
0.0
 24
0.0
 34
0.0
 15
0.0
 25
0.0
 35
0.0
146
0.0
 13
0.0
 23
0.0
 33
0.0
 16
1.0
 26
0.0
 36
0.0
 17
0.0
 27
1.0
 37
0.0
 76
     0
330
70
  0
MATERIAL
  5
19
102
{ACAD_XDICTIONARY
360
1A
102
}
102
{ACAD_REACTORS
330
10
102
}
330
10
100
AcDbMaterial
  1
ByBlock
 72
     0
 43
0.0208333333333333
 43
0.0
 43
0.0
 43
0.0
 43
0.0
 43
0.0208333333333333
 43
0.0
 43
0.0
 43
0.0
 43
0.0
 43
1.0
 43
0.0
 43
0.0
 43
0.0
 43
0.0
 43
1.0
 77
     0
 47
0.0208333333333333
 47
0.0
 47
0.0
 47
0.0
 47
0.0
 47
0.0208333333333333
 47
0.0
 47
0.0
 47
0.0
 47
0.0
 47
1.0
 47
0.0
 47
0.0
 47
0.0
 47
0.0
 47
1.0
171
     0
 49
0.0208333333333333
 49
0.0
 49
0.0
 49
0.0
 49
0.0
 49
0.0208333333333333
 49
0.0
 49
0.0
 49
0.0
 49
0.0
 49
1.0
 49
0.0
 49
0.0
 49
0.0
 49
0.0
 49
1.0
175
     0
142
0.0208333333333333
142
0.0
142
0.0
142
0.0
142
0.0
142
0.0208333333333333
142
0.0
142
0.0
142
0.0
142
0.0
142
1.0
142
0.0
142
0.0
142
0.0
142
0.0
142
1.0
179
     0
144
0.0208333333333333
144
0.0
144
0.0
144
0.0
144
0.0
144
0.0208333333333333
144
0.0
144
0.0
144
0.0
144
0.0
144
1.0
144
0.0
144
0.0
144
0.0
144
0.0
144
1.0
147
0.0208333333333333
147
0.0
147
0.0
147
0.0
147
0.0
147
0.0208333333333333
147
0.0
147
0.0
147
0.0
147
0.0
147
1.0
147
0.0
147
0.0
147
0.0
147
0.0
147
1.0
  0
MATERIAL
  5
11
102
{ACAD_XDICTIONARY
360
12
102
}
102
{ACAD_REACTORS
330
10
102
}
330
10
100
AcDbMaterial
  1
ByLayer
 72
     0
 43
0.0208333333333333
 43
0.0
 43
0.0
 43
0.0
 43
0.0
 43
0.0208333333333333
 43
0.0
 43
0.0
 43
0.0
 43
0.0
 43
1.0
 43
0.0
 43
0.0
 43
0.0
 43
0.0
 43
1.0
 77
     0
 47
0.0208333333333333
 47
0.0
 47
0.0
 47
0.0
 47
0.0
 47
0.0208333333333333
 47
0.0
 47
0.0
 47
0.0
 47
0.0
 47
1.0
 47
0.0
 47
0.0
 47
0.0
 47
0.0
 47
1.0
171
     0
 49
0.0208333333333333
 49
0.0
 49
0.0
 49
0.0
 49
0.0
 49
0.0208333333333333
 49
0.0
 49
0.0
 49
0.0
 49
0.0
 49
1.0
 49
0.0
 49
0.0
 49
0.0
 49
0.0
 49
1.0
175
     0
142
0.0208333333333333
142
0.0
142
0.0
142
0.0
142
0.0
142
0.0208333333333333
142
0.0
142
0.0
142
0.0
142
0.0
142
1.0
142
0.0
142
0.0
142
0.0
142
0.0
142
1.0
179
     0
144
0.0208333333333333
144
0.0
144
0.0
144
0.0
144
0.0
144
0.0208333333333333
144
0.0
144
0.0
144
0.0
144
0.0
144
1.0
144
0.0
144
0.0
144
0.0
144
0.0
144
1.0
147
0.0208333333333333
147
0.0
147
0.0
147
0.0
147
0.0
147
0.0208333333333333
147
0.0
147
0.0
147
0.0
147
0.0
147
1.0
147
0.0
147
0.0
147
0.0
147
0.0
147
1.0
  0
MATERIAL
  5
21
102
{ACAD_XDICTIONARY
360
22
102
}
102
{ACAD_REACTORS
330
10
102
}
330
10
100
AcDbMaterial
  1
Global
 72
     0
 43
0.0208333333333333
 43
0.0
 43
0.0
 43
0.0
 43
0.0
 43
0.0208333333333333
 43
0.0
 43
0.0
 43
0.0
 43
0.0
 43
1.0
 43
0.0
 43
0.0
 43
0.0
 43
0.0
 43
1.0
 77
     0
 47
0.0208333333333333
 47
0.0
 47
0.0
 47
0.0
 47
0.0
 47
0.0208333333333333
 47
0.0
 47
0.0
 47
0.0
 47
0.0
 47
1.0
 47
0.0
 47
0.0
 47
0.0
 47
0.0
 47
1.0
171
     0
 49
0.0208333333333333
 49
0.0
 49
0.0
 49
0.0
 49
0.0
 49
0.0208333333333333
 49
0.0
 49
0.0
 49
0.0
 49
0.0
 49
1.0
 49
0.0
 49
0.0
 49
0.0
 49
0.0
 49
1.0
175
     0
142
0.0208333333333333
142
0.0
142
0.0
142
0.0
142
0.0
142
0.0208333333333333
142
0.0
142
0.0
142
0.0
142
0.0
142
1.0
142
0.0
142
0.0
142
0.0
142
0.0
142
1.0
179
     0
144
0.0208333333333333
144
0.0
144
0.0
144
0.0
144
0.0
144
0.0208333333333333
144
0.0
144
0.0
144
0.0
144
0.0
144
1.0
144
0.0
144
0.0
144
0.0
144
0.0
144
1.0
147
0.0208333333333333
147
0.0
147
0.0
147
0.0
147
0.0
147
0.0208333333333333
147
0.0
147
0.0
147
0.0
147
0.0
147
1.0
147
0.0
147
0.0
147
0.0
147
0.0
147
1.0
  0
MLEADERSTYLE
  5
67
102
{ACAD_REACTORS
330
66
102
}
330
66
100
AcDbMLeaderStyle
179
     2
170
     2
171
     1
172
     0
 90
        2
 40
0.0
 41
0.0
173
     1
 91
-1056964608
340
5B
 92
       -2
290
     1
 42
0.09
291
     1
 43
0.36
  3
Standard
 44
0.18
300

342
55
174
     1
178
     6
175
     1
176
     0
 93
-1056964608
 45
0.18
292
     0
297
     0
 46
0.18
 94
-1056964608
 47
1.0
 49
1.0
140
1.0
293
     1
141
0.0
294
     1
177
     0
142
1.0
295
     1
296
     0
143
0.125
271
     0
272
     9
273
     9
298
     1
  0
MLINESTYLE
  5
60
102
{ACAD_REACTORS
330
5F
102
}
330
5F
100
AcDbMlineStyle
  2
STANDARD
 70
     0
  3

 62
   256
 51
90.0
 52
90.0
 71
     2
 49
0.5
 62
   256
  6
BYLAYER
 49
-0.5
 62
   256
  6
BYLAYER
  0
ACDBPLACEHOLDER
  5
F
102
{ACAD_REACTORS
330
E
102
}
330
E
  0
SCALE
  5
43
102
{ACAD_REACTORS
330
42
102
}
330
42
100
AcDbScale
 70
     0
300
1:1
140
1.0
141
1.0
290
     1
  0
SCALE
  5
44
102
{ACAD_REACTORS
330
42
102
}
330
42
100
AcDbScale
 70
     0
300
1/128" = 1'-0"
140
0.0078125
141
12.0
290
     0
  0
SCALE
  5
45
102
{ACAD_REACTORS
330
42
102
}
330
42
100
AcDbScale
 70
     0
300
1/64" = 1'-0"
140
0.015625
141
12.0
290
     0
  0
SCALE
  5
46
102
{ACAD_REACTORS
330
42
102
}
330
42
100
AcDbScale
 70
     0
300
1/32" = 1'-0"
140
0.03125
141
12.0
290
     0
  0
SCALE
  5
47
102
{ACAD_REACTORS
330
42
102
}
330
42
100
AcDbScale
 70
     0
300
1/16" = 1'-0"
140
0.0625
141
12.0
290
     0
  0
SCALE
  5
48
102
{ACAD_REACTORS
330
42
102
}
330
42
100
AcDbScale
 70
     0
300
3/32" = 1'-0"
140
0.09375
141
12.0
290
     0
  0
SCALE
  5
49
102
{ACAD_REACTORS
330
42
102
}
330
42
100
AcDbScale
 70
     0
300
1/8" = 1'-0"
140
0.125
141
12.0
290
     0
  0
SCALE
  5
4A
102
{ACAD_REACTORS
330
42
102
}
330
42
100
AcDbScale
 70
     0
300
3/16" = 1'-0"
140
0.1875
141
12.0
290
     0
  0
SCALE
  5
4B
102
{ACAD_REACTORS
330
42
102
}
330
42
100
AcDbScale
 70
     0
300
1/4" = 1'-0"
140
0.25
141
12.0
290
     0
  0
SCALE
  5
4C
102
{ACAD_REACTORS
330
42
102
}
330
42
100
AcDbScale
 70
     0
300
3/8" = 1'-0"
140
0.375
141
12.0
290
     0
  0
SCALE
  5
4D
102
{ACAD_REACTORS
330
42
102
}
330
42
100
AcDbScale
 70
     0
300
1/2" = 1'-0"
140
0.5
141
12.0
290
     0
  0
SCALE
  5
4E
102
{ACAD_REACTORS
330
42
102
}
330
42
100
AcDbScale
 70
     0
300
3/4" = 1'-0"
140
0.75
141
12.0
290
     0
  0
SCALE
  5
4F
102
{ACAD_REACTORS
330
42
102
}
330
42
100
AcDbScale
 70
     0
300
1" = 1'-0"
140
1.0
141
12.0
290
     0
  0
SCALE
  5
50
102
{ACAD_REACTORS
330
42
102
}
330
42
100
AcDbScale
 70
     0
300
1-1/2" = 1'-0"
140
1.5
141
12.0
290
     0
  0
SCALE
  5
51
102
{ACAD_REACTORS
330
42
102
}
330
42
100
AcDbScale
 70
     0
300
3" = 1'-0"
140
3.0
141
12.0
290
     0
  0
SCALE
  5
52
102
{ACAD_REACTORS
330
42
102
}
330
42
100
AcDbScale
 70
     0
300
6" = 1'-0"
140
6.0
141
12.0
290
     0
  0
SCALE
  5
53
102
{ACAD_REACTORS
330
42
102
}
330
42
100
AcDbScale
 70
     0
300
1'-0" = 1'-0"
140
12.0
141
12.0
290
     0
  0
ACDBSECTIONVIEWSTYLE
  5
69
102
{ACAD_REACTORS
330
68
102
}
330
68
100
AcDbModelDocViewStyle
 70
     0
  3
Imperial24
290
     1
300
Imperial24
 90
        0
100
AcDbSectionViewStyle
 70
     0
 71
     0
 90
       78
 71
     1
340
55
 62
   256
 40
0.24
340
0
340
0
 62
   256
 40
0.24
300
I, O, Q, S, X, Z
 40
0.48
 90
        3
 40
0.18
 90
        1
 71
     2
340
5D
 90
       25
 62
   256
340
5D
 90
       50
 62
   256
 40
0.24
 40
0.0
 40
0.24
 71
     3
340
55
 62
   256
 40
0.24
 90
        1
 40
0.75
 90
        1
300
%<\AcVar ViewType \f "%tc1">% %<\AcVar ViewSectionStartId>%-%<\AcVar ViewSectionEndId>%\PSCALE %<\AcVar ViewScale \f "%sn">%
 71
     4
 62
   256
 62
   257
300
ANSI31
 40
1.0
 90
        0
290
     0
290
     0
 90
        6
 40
0.0
 40
1.570796326794896
 40
0.2617993877991494
 40
1.308996938995747
 40
-0.2617993877991494
 40
1.832595714594046
  0
TABLESTYLE
  5
65
102
{ACAD_XDICTIONARY
360
1B3
102
}
102
{ACAD_REACTORS
330
64
102
}
330
64
100
AcDbTableStyle
280
     0
  3
Standard
 70
     0
 71
     0
 40
0.06
 41
0.06
280
     0
281
     0
  7
Standard
140
0.18
170
     2
 62
     0
 63
     7
283
     0
 90
      512
 91
        0
  1

274
    -2
284
     1
 64
     0
275
    -2
285
     1
 65
     0
276
    -2
286
     1
 66
     0
277
    -2
287
     1
 67
     0
278
    -2
288
     1
 68
     0
279
    -2
289
     1
 69
     0
  7
Standard
140
0.25
170
     5
 62
     0
 63
     7
283
     0
 90
      512
 91
        0
  1

274
    -2
284
     1
 64
     0
275
    -2
285
     1
 65
     0
276
    -2
286
     1
 66
     0
277
    -2
287
     1
 67
     0
278
    -2
288
     1
 68
     0
279
    -2
289
     1
 69
     0
  7
Standard
140
0.18
170
     5
 62
     0
 63
     7
283
     0
 90
      512
 91
        0
  1

274
    -2
284
     1
 64
     0
275
    -2
285
     1
 65
     0
276
    -2
286
     1
 66
     0
277
    -2
287
     1
 67
     0
278
    -2
288
     1
 68
     0
279
    -2
289
     1
 69
     0
  0
VISUALSTYLE
  5
2F
102
{ACAD_REACTORS
330
29
102
}
330
29
100
AcDbVisualStyle
  2
2dWireframe
 70
     4
177
     3
291
     0
 70
    58
 90
        0
176
     1
 90
        2
176
     1
 90
        0
176
     1
 90
        0
176
     1
 40
0.6
176
     1
 40
30.0
176
     1
 62
     7
420
 16777215
176
     1
 90
        1
176
     1
 90
        4
176
     1
 62
     7
176
     1
 62
   257
176
     1
 90
        1
176
     1
 90
        1
176
     1
 40
1.0
176
     1
 90
        0
176
     1
 62
   257
176
     1
 40
1.0
176
     1
 90
        1
176
     1
 90
        6
176
     1
 90
        2
176
     1
 62
     7
176
     1
 90
        5
176
     1
 90
        0
176
     1
 90
        0
176
     1
290
     0
176
     1
 90
        1
176
     1
 40
0.0
176
     1
 90
        0
176
     1
290
     1
176
     1
290
     1
176
     1
290
     0
176
     1
290
     0
176
     1
290
     0
176
     1
290
     0
176
     1
290
     0
176
     1
290
     0
176
     1
290
     0
176
     1
 90
       50
176
     1
 40
0.0
176
     1
 40
1.0
176
     1
 90
        0
176
     1
 62
    18
420
        0
176
     1
 90
       50
176
     1
 90
        3
176
     1
 62
     5
420
      255
176
     1
290
     0
176
     1
 90
       50
176
     1
 90
       50
176
     1
 90
       50
176
     1
290
     0
176
     1
 90
       50
176
     1
 62
   256
176
     0
 40
1.0
176
     0
 90
        2
176
     1
  1
strokes_ogs.tif
176
     1
290
     0
176
     1
 40
1.0
176
     1
 40
1.0
176
     1
  0
VISUALSTYLE
  5
2E
102
{ACAD_REACTORS
330
29
102
}
330
29
100
AcDbVisualStyle
  2
Basic
 70
     7
177
     3
291
     1
 70
    58
 90
        1
176
     1
 90
        0
176
     1
 90
        1
176
     1
 90
        0
176
     1
 40
0.6
176
     1
 40
30.0
176
     1
 62
     7
420
 16777215
176
     1
 90
        0
176
     1
 90
        4
176
     1
 62
     7
176
     1
 62
   257
176
     1
 90
        1
176
     1
 90
        1
176
     1
 40
1.0
176
     1
 90
        8
176
     1
 62
     7
176
     1
 40
1.0
176
     1
 90
        1
176
     1
 90
        6
176
     1
 90
        2
176
     1
 62
     7
176
     1
 90
        5
176
     1
 90
        0
176
     1
 90
        0
176
     1
290
     0
176
     1
 90
        1
176
     1
 40
0.0
176
     1
 90
        0
176
     1
290
     0
176
     1
290
     1
176
     1
290
     1
176
     1
290
     0
176
     1
290
     0
176
     1
290
     0
176
     1
290
     0
176
     1
290
     0
176
     1
290
     0
176
     1
 90
       50
176
     1
 40
0.0
176
     1
 40
1.0
176
     1
 90
        0
176
     1
 62
    18
420
        0
176
     1
 90
       50
176
     1
 90
        3
176
     1
 62
     5
420
      255
176
     1
290
     0
176
     1
 90
       50
176
     1
 90
       50
176
     1
 90
       50
176
     1
290
     0
176
     1
 90
       50
176
     1
 62
   256
176
     0
 40
1.0
176
     0
 90
        2
176
     1
  1
strokes_ogs.tif
176
     1
290
     0
176
     1
 40
1.0
176
     1
 40
1.0
176
     1
  0
VISUALSTYLE
  5
35
102
{ACAD_REACTORS
330
29
102
}
330
29
100
AcDbVisualStyle
  2
Brighten
 70
    12
177
     3
291
     1
 70
    58
 90
        2
176
     1
 90
        2
176
     1
 90
        0
176
     1
 90
        0
176
     1
 40
0.6
176
     1
 40
30.0
176
     1
 62
     7
420
 16777215
176
     1
 90
        1
176
     1
 90
        4
176
     1
 62
     7
176
     1
 62
   257
176
     1
 90
        1
176
     1
 90
        1
176
     1
 40
1.0
176
     1
 90
        8
176
     1
 62
     7
176
     1
 40
1.0
176
     1
 90
        1
176
     1
 90
        6
176
     1
 90
        2
176
     1
 62
     7
176
     1
 90
        5
176
     1
 90
        0
176
     1
 90
        0
176
     1
290
     0
176
     1
 90
        1
176
     1
 40
50.0
176
     1
 90
        0
176
     1
290
     0
176
     1
290
     1
176
     1
290
     1
176
     1
290
     0
176
     1
290
     0
176
     1
290
     0
176
     1
290
     0
176
     1
290
     0
176
     1
290
     0
176
     1
 90
       50
176
     1
 40
0.0
176
     1
 40
1.0
176
     1
 90
        0
176
     1
 62
    18
420
        0
176
     1
 90
       50
176
     1
 90
        3
176
     1
 62
     5
420
      255
176
     1
290
     0
176
     1
 90
       50
176
     1
 90
       50
176
     1
 90
       50
176
     1
290
     0
176
     1
 90
       50
176
     1
 62
   256
176
     0
 40
1.0
176
     0
 90
        2
176
     1
  1
strokes_ogs.tif
176
     1
290
     0
176
     1
 40
1.0
176
     1
 40
1.0
176
     1
  0
VISUALSTYLE
  5
39
102
{ACAD_REACTORS
330
29
102
}
330
29
100
AcDbVisualStyle
  2
ColorChange
 70
    16
177
     3
291
     1
 70
    58
 90
        2
176
     1
 90
        2
176
     1
 90
        3
176
     1
 90
        0
176
     1
 40
0.6
176
     1
 40
30.0
176
     1
 62
     8
420
  8421504
176
     1
 90
        1
176
     1
 90
        4
176
     1
 62
     7
176
     1
 62
   257
176
     1
 90
        1
176
     1
 90
        1
176
     1
 40
1.0
176
     1
 90
        8
176
     1
 62
     8
420
  8421504
176
     1
 40
1.0
176
     1
 90
        1
176
     1
 90
        6
176
     1
 90
        2
176
     1
 62
     7
176
     1
 90
        5
176
     1
 90
        0
176
     1
 90
        0
176
     1
290
     0
176
     1
 90
        1
176
     1
 40
0.0
176
     1
 90
        0
176
     1
290
     0
176
     1
290
     1
176
     1
290
     1
176
     1
290
     0
176
     1
290
     0
176
     1
290
     0
176
     1
290
     0
176
     1
290
     0
176
     1
290
     0
176
     1
 90
       50
176
     1
 40
0.0
176
     1
 40
1.0
176
     1
 90
        0
176
     1
 62
    18
420
        0
176
     1
 90
       50
176
     1
 90
        3
176
     1
 62
     5
420
      255
176
     1
290
     0
176
     1
 90
       50
176
     1
 90
       50
176
     1
 90
       50
176
     1
290
     0
176
     1
 90
       50
176
     1
 62
   256
176
     0
 40
1.0
176
     0
 90
        2
176
     1
  1
strokes_ogs.tif
176
     1
290
     0
176
     1
 40
1.0
176
     1
 40
1.0
176
     1
  0
VISUALSTYLE
  5
32
102
{ACAD_REACTORS
330
29
102
}
330
29
100
AcDbVisualStyle
  2
Conceptual
 70
     9
177
     3
291
     0
 70
    58
 90
        3
176
     1
 90
        2
176
     1
 90
        0
176
     1
 90
        0
176
     1
 40
0.6
176
     1
 40
30.0
176
     1
 62
     7
420
 16777215
176
     1
 90
        2
176
     1
 90
        2
176
     1
 62
     7
176
     1
 62
   257
176
     1
 90
        1
176
     1
 90
        1
176
     1
 40
179.0
176
     1
 90
        8
176
     1
 62
     7
176
     1
 40
1.0
176
     1
 90
        1
176
     1
 90
        6
176
     1
 90
        2
176
     1
 62
     7
176
     1
 90
        3
176
     1
 90
        0
176
     1
 90
        0
176
     1
290
     0
176
     1
 90
        1
176
     1
 40
0.0
176
     1
 90
        0
176
     1
290
     0
176
     1
290
     1
176
     1
290
     1
176
     1
290
     0
176
     1
290
     0
176
     1
290
     0
176
     1
290
     0
176
     1
290
     0
176
     1
290
     0
176
     1
 90
       50
176
     1
 40
0.0
176
     1
 40
1.0
176
     1
 90
        0
176
     1
 62
    18
420
        0
176
     1
 90
       50
176
     1
 90
        3
176
     1
 62
     5
420
      255
176
     1
290
     0
176
     1
 90
       50
176
     1
 90
       50
176
     1
 90
       50
176
     1
290
     0
176
     1
 90
       50
176
     1
 62
   256
176
     0
 40
1.0
176
     0
 90
        2
176
     1
  1
strokes_ogs.tif
176
     1
290
     0
176
     1
 40
1.0
176
     1
 40
1.0
176
     1
  0
VISUALSTYLE
  5
34
102
{ACAD_REACTORS
330
29
102
}
330
29
100
AcDbVisualStyle
  2
Dim
 70
    11
177
     3
291
     1
 70
    58
 90
        2
176
     1
 90
        2
176
     1
 90
        0
176
     1
 90
        0
176
     1
 40
0.6
176
     1
 40
30.0
176
     1
 62
     7
420
 16777215
176
     1
 90
        1
176
     1
 90
        4
176
     1
 62
     7
176
     1
 62
   257
176
     1
 90
        1
176
     1
 90
        1
176
     1
 40
1.0
176
     1
 90
        8
176
     1
 62
     7
176
     1
 40
1.0
176
     1
 90
        1
176
     1
 90
        6
176
     1
 90
        2
176
     1
 62
     7
176
     1
 90
        5
176
     1
 90
        0
176
     1
 90
        0
176
     1
290
     0
176
     1
 90
        1
176
     1
 40
-50.0
176
     1
 90
        0
176
     1
290
     0
176
     1
290
     1
176
     1
290
     1
176
     1
290
     0
176
     1
290
     0
176
     1
290
     0
176
     1
290
     0
176
     1
290
     0
176
     1
290
     0
176
     1
 90
       50
176
     1
 40
0.0
176
     1
 40
1.0
176
     1
 90
        0
176
     1
 62
    18
420
        0
176
     1
 90
       50
176
     1
 90
        3
176
     1
 62
     5
420
      255
176
     1
290
     0
176
     1
 90
       50
176
     1
 90
       50
176
     1
 90
       50
176
     1
290
     0
176
     1
 90
       50
176
     1
 62
   256
176
     0
 40
1.0
176
     0
 90
        2
176
     1
  1
strokes_ogs.tif
176
     1
290
     0
176
     1
 40
1.0
176
     1
 40
1.0
176
     1
  0
VISUALSTYLE
  5
41
102
{ACAD_REACTORS
330
29
102
}
330
29
100
AcDbVisualStyle
  2
EdgeColorOff
 70
    22
177
     3
291
     1
 70
    58
 90
        2
176
     0
 90
        2
176
     0
 90
        0
176
     0
 90
        0
176
     0
 40
0.6
176
     0
 40
30.0
176
     0
 62
     7
420
 16777215
176
     0
 90
        1
176
     0
 90
        4
176
     0
 62
     7
176
     0
 62
   257
176
     0
 90
        1
176
     0
 90
        1
176
     0
 40
1.0
176
     0
 90
        8
176
     2
 62
     7
176
     0
 40
1.0
176
     0
 90
        1
176
     0
 90
        6
176
     0
 90
        2
176
     0
 62
     7
176
     0
 90
        5
176
     0
 90
        0
176
     0
 90
        0
176
     0
290
     0
176
     0
 90
        1
176
     0
 40
0.0
176
     0
 90
        0
176
     0
290
     0
176
     0
290
     1
176
     0
290
     1
176
     0
290
     0
176
     0
290
     0
176
     0
290
     0
176
     0
290
     0
176
     0
290
     0
176
     0
290
     0
176
     0
 90
       50
176
     0
 40
0.0
176
     0
 40
1.0
176
     0
 90
        0
176
     0
 62
    18
420
        0
176
     0
 90
       50
176
     0
 90
        3
176
     0
 62
     5
420
      255
176
     0
290
     0
176
     0
 90
       50
176
     0
 90
       50
176
     0
 90
       50
176
     0
290
     0
176
     0
 90
       50
176
     0
 62
   256
176
     0
 40
1.0
176
     0
 90
        2
176
     0
  1
strokes_ogs.tif
176
     0
290
     0
176
     0
 40
1.0
176
     0
 40
1.0
176
     0
  0
VISUALSTYLE
  5
38
102
{ACAD_REACTORS
330
29
102
}
330
29
100
AcDbVisualStyle
  2
Facepattern
 70
    15
177
     3
291
     1
 70
    58
 90
        2
176
     1
 90
        2
176
     1
 90
        0
176
     1
 90
        0
176
     1
 40
0.6
176
     1
 40
30.0
176
     1
 62
     7
420
 16777215
176
     1
 90
        1
176
     1
 90
        4
176
     1
 62
     7
176
     1
 62
   257
176
     1
 90
        1
176
     1
 90
        1
176
     1
 40
1.0
176
     1
 90
        8
176
     1
 62
     7
176
     1
 40
1.0
176
     1
 90
        1
176
     1
 90
        6
176
     1
 90
        2
176
     1
 62
     7
176
     1
 90
        5
176
     1
 90
        0
176
     1
 90
        0
176
     1
290
     0
176
     1
 90
        1
176
     1
 40
0.0
176
     1
 90
        0
176
     1
290
     0
176
     1
290
     1
176
     1
290
     1
176
     1
290
     0
176
     1
290
     0
176
     1
290
     0
176
     1
290
     0
176
     1
290
     0
176
     1
290
     0
176
     1
 90
       50
176
     1
 40
0.0
176
     1
 40
1.0
176
     1
 90
        0
176
     1
 62
    18
420
        0
176
     1
 90
       50
176
     1
 90
        3
176
     1
 62
     5
420
      255
176
     1
290
     0
176
     1
 90
       50
176
     1
 90
       50
176
     1
 90
       50
176
     1
290
     0
176
     1
 90
       50
176
     1
 62
   256
176
     0
 40
1.0
176
     0
 90
        2
176
     1
  1
strokes_ogs.tif
176
     1
290
     0
176
     1
 40
1.0
176
     1
 40
1.0
176
     1
  0
VISUALSTYLE
  5
2A
102
{ACAD_REACTORS
330
29
102
}
330
29
100
AcDbVisualStyle
  2
Flat
 70
     0
177
     3
291
     1
 70
    58
 90
        2
176
     1
 90
        1
176
     1
 90
        1
176
     1
 90
        2
176
     1
 40
0.6
176
     1
 40
30.0
176
     1
 62
     7
420
 16777215
176
     1
 90
        0
176
     1
 90
        0
176
     1
 62
     7
176
     1
 62
   257
176
     1
 90
        1
176
     1
 90
        1
176
     1
 40
1.0
176
     1
 90
        8
176
     1
 62
     7
176
     1
 40
1.0
176
     1
 90
        1
176
     1
 90
        6
176
     1
 90
        2
176
     1
 62
     7
176
     1
 90
        5
176
     1
 90
        0
176
     1
 90
        0
176
     1
290
     0
176
     1
 90
       13
176
     1
 40
0.0
176
     1
 90
        0
176
     1
290
     0
176
     1
290
     1
176
     1
290
     1
176
     1
290
     0
176
     1
290
     0
176
     1
290
     0
176
     1
290
     0
176
     1
290
     0
176
     1
290
     0
176
     1
 90
       50
176
     1
 40
0.0
176
     1
 40
1.0
176
     1
 90
        0
176
     1
 62
    18
420
        0
176
     1
 90
       50
176
     1
 90
        3
176
     1
 62
     5
420
      255
176
     1
290
     0
176
     1
 90
       50
176
     1
 90
       50
176
     1
 90
       50
176
     1
290
     0
176
     1
 90
       50
176
     1
 62
   256
176
     0
 40
1.0
176
     0
 90
        2
176
     1
  1
strokes_ogs.tif
176
     1
290
     0
176
     1
 40
1.0
176
     1
 40
1.0
176
     1
  0
VISUALSTYLE
  5
2B
102
{ACAD_REACTORS
330
29
102
}
330
29
100
AcDbVisualStyle
  2
FlatWithEdges
 70
     1
177
     3
291
     1
 70
    58
 90
        2
176
     1
 90
        1
176
     1
 90
        1
176
     1
 90
        2
176
     1
 40
0.6
176
     1
 40
30.0
176
     1
 62
     7
420
 16777215
176
     1
 90
        1
176
     1
 90
        0
176
     1
 62
     7
176
     1
 62
   257
176
     1
 90
        1
176
     1
 90
        1
176
     1
 40
1.0
176
     1
 90
        0
176
     1
 62
   257
176
     1
 40
1.0
176
     1
 90
        1
176
     1
 90
        6
176
     1
 90
        2
176
     1
 62
     7
176
     1
 90
        5
176
     1
 90
        0
176
     1
 90
        0
176
     1
290
     0
176
     1
 90
       13
176
     1
 40
0.0
176
     1
 90
        0
176
     1
290
     0
176
     1
290
     1
176
     1
290
     1
176
     1
290
     0
176
     1
290
     0
176
     1
290
     0
176
     1
290
     0
176
     1
290
     0
176
     1
290
     0
176
     1
 90
       50
176
     1
 40
0.0
176
     1
 40
1.0
176
     1
 90
        0
176
     1
 62
    18
420
        0
176
     1
 90
       50
176
     1
 90
        3
176
     1
 62
     5
420
      255
176
     1
290
     0
176
     1
 90
       50
176
     1
 90
       50
176
     1
 90
       50
176
     1
290
     0
176
     1
 90
       50
176
     1
 62
   256
176
     0
 40
1.0
176
     0
 90
        2
176
     1
  1
strokes_ogs.tif
176
     1
290
     0
176
     1
 40
1.0
176
     1
 40
1.0
176
     1
  0
VISUALSTYLE
  5
2C
102
{ACAD_REACTORS
330
29
102
}
330
29
100
AcDbVisualStyle
  2
Gouraud
 70
     2
177
     3
291
     1
 70
    58
 90
        2
176
     1
 90
        2
176
     1
 90
        1
176
     1
 90
        2
176
     1
 40
0.6
176
     1
 40
30.0
176
     1
 62
     7
420
 16777215
176
     1
 90
        0
176
     1
 90
        0
176
     1
 62
     7
176
     1
 62
   257
176
     1
 90
        1
176
     1
 90
        1
176
     1
 40
1.0
176
     1
 90
        0
176
     1
 62
     7
176
     1
 40
1.0
176
     1
 90
        1
176
     1
 90
        6
176
     1
 90
        2
176
     1
 62
     7
176
     1
 90
        5
176
     1
 90
        0
176
     1
 90
        0
176
     1
290
     0
176
     1
 90
       13
176
     1
 40
0.0
176
     1
 90
        0
176
     1
290
     0
176
     1
290
     1
176
     1
290
     1
176
     1
290
     0
176
     1
290
     0
176
     1
290
     0
176
     1
290
     0
176
     1
290
     0
176
     1
290
     0
176
     1
 90
       50
176
     1
 40
0.0
176
     1
 40
1.0
176
     1
 90
        0
176
     1
 62
    18
420
        0
176
     1
 90
       50
176
     1
 90
        3
176
     1
 62
     5
420
      255
176
     1
290
     0
176
     1
 90
       50
176
     1
 90
       50
176
     1
 90
       50
176
     1
290
     0
176
     1
 90
       50
176
     1
 62
   256
176
     0
 40
1.0
176
     0
 90
        2
176
     1
  1
strokes_ogs.tif
176
     1
290
     0
176
     1
 40
1.0
176
     1
 40
1.0
176
     1
  0
VISUALSTYLE
  5
2D
102
{ACAD_REACTORS
330
29
102
}
330
29
100
AcDbVisualStyle
  2
GouraudWithEdges
 70
     3
177
     3
291
     1
 70
    58
 90
        2
176
     1
 90
        2
176
     1
 90
        1
176
     1
 90
        2
176
     1
 40
0.6
176
     1
 40
30.0
176
     1
 62
     7
420
 16777215
176
     1
 90
        1
176
     1
 90
        0
176
     1
 62
     7
176
     1
 62
   257
176
     1
 90
        1
176
     1
 90
        1
176
     1
 40
1.0
176
     1
 90
        0
176
     1
 62
   257
176
     1
 40
1.0
176
     1
 90
        1
176
     1
 90
        6
176
     1
 90
        2
176
     1
 62
     7
176
     1
 90
        5
176
     1
 90
        0
176
     1
 90
        0
176
     1
290
     0
176
     1
 90
       13
176
     1
 40
0.0
176
     1
 90
        0
176
     1
290
     0
176
     1
290
     1
176
     1
290
     1
176
     1
290
     0
176
     1
290
     0
176
     1
290
     0
176
     1
290
     0
176
     1
290
     0
176
     1
290
     0
176
     1
 90
       50
176
     1
 40
0.0
176
     1
 40
1.0
176
     1
 90
        0
176
     1
 62
    18
420
        0
176
     1
 90
       50
176
     1
 90
        3
176
     1
 62
     5
420
      255
176
     1
290
     0
176
     1
 90
       50
176
     1
 90
       50
176
     1
 90
       50
176
     1
290
     0
176
     1
 90
       50
176
     1
 62
   256
176
     0
 40
1.0
176
     0
 90
        2
176
     1
  1
strokes_ogs.tif
176
     1
290
     0
176
     1
 40
1.0
176
     1
 40
1.0
176
     1
  0
VISUALSTYLE
  5
31
102
{ACAD_REACTORS
330
29
102
}
330
29
100
AcDbVisualStyle
  2
Hidden
 70
     6
177
     3
291
     0
 70
    58
 90
        1
176
     1
 90
        2
176
     1
 90
        2
176
     1
 90
        0
176
     1
 40
0.6
176
     1
 40
30.0
176
     1
 62
     7
420
 16777215
176
     1
 90
        2
176
     1
 90
        2
176
     1
 62
     7
176
     1
 62
   257
176
     1
 90
        2
176
     1
 90
        1
176
     1
 40
40.0
176
     1
 90
        0
176
     1
 62
   257
176
     1
 40
1.0
176
     1
 90
        1
176
     1
 90
        6
176
     1
 90
        2
176
     1
 62
     7
176
     1
 90
        3
176
     1
 90
        0
176
     1
 90
        0
176
     1
290
     0
176
     1
 90
        1
176
     1
 40
0.0
176
     1
 90
        0
176
     1
290
     0
176
     1
290
     1
176
     1
290
     1
176
     1
290
     0
176
     1
290
     0
176
     1
290
     0
176
     1
290
     0
176
     1
290
     0
176
     1
290
     0
176
     1
 90
       50
176
     1
 40
0.0
176
     1
 40
1.0
176
     1
 90
        0
176
     1
 62
    18
420
        0
176
     1
 90
       50
176
     1
 90
        3
176
     1
 62
     5
420
      255
176
     1
290
     0
176
     1
 90
       50
176
     1
 90
       50
176
     1
 90
       50
176
     1
290
     0
176
     1
 90
       50
176
     1
 62
   256
176
     0
 40
1.0
176
     0
 90
        2
176
     1
  1
strokes_ogs.tif
176
     1
290
     0
176
     1
 40
1.0
176
     1
 40
1.0
176
     1
  0
VISUALSTYLE
  5
3F
102
{ACAD_REACTORS
330
29
102
}
330
29
100
AcDbVisualStyle
  2
JitterOff
 70
    20
177
     3
291
     1
 70
    58
 90
        2
176
     0
 90
        2
176
     0
 90
        0
176
     0
 90
        0
176
     0
 40
0.6
176
     0
 40
30.0
176
     0
 62
     7
420
 16777215
176
     0
 90
        1
176
     0
 90
        4
176
     0
 62
     7
176
     0
 62
   257
176
     0
 90
        1
176
     0
 90
        1
176
     0
 40
1.0
176
     0
 90
       10
176
     2
 62
     7
176
     0
 40
1.0
176
     0
 90
        1
176
     0
 90
        6
176
     0
 90
        2
176
     0
 62
     7
176
     0
 90
        5
176
     0
 90
        0
176
     0
 90
        0
176
     0
290
     0
176
     0
 90
        1
176
     0
 40
0.0
176
     0
 90
        0
176
     0
290
     0
176
     0
290
     1
176
     0
290
     1
176
     0
290
     0
176
     0
290
     0
176
     0
290
     0
176
     0
290
     0
176
     0
290
     0
176
     0
290
     0
176
     0
 90
       50
176
     0
 40
0.0
176
     0
 40
1.0
176
     0
 90
        0
176
     0
 62
    18
420
        0
176
     0
 90
       50
176
     0
 90
        3
176
     0
 62
     5
420
      255
176
     0
290
     0
176
     0
 90
       50
176
     0
 90
       50
176
     0
 90
       50
176
     0
290
     0
176
     0
 90
       50
176
     0
 62
   256
176
     0
 40
1.0
176
     0
 90
        2
176
     0
  1
strokes_ogs.tif
176
     0
290
     0
176
     0
 40
1.0
176
     0
 40
1.0
176
     0
  0
VISUALSTYLE
  5
37
102
{ACAD_REACTORS
330
29
102
}
330
29
100
AcDbVisualStyle
  2
Linepattern
 70
    14
177
     3
291
     1
 70
    58
 90
        2
176
     1
 90
        2
176
     1
 90
        0
176
     1
 90
        0
176
     1
 40
0.6
176
     1
 40
30.0
176
     1
 62
     7
420
 16777215
176
     1
 90
        1
176
     1
 90
        4
176
     1
 62
     7
176
     1
 62
   257
176
     1
 90
        7
176
     1
 90
        7
176
     1
 40
1.0
176
     1
 90
        8
176
     1
 62
     7
176
     1
 40
1.0
176
     1
 90
        1
176
     1
 90
        6
176
     1
 90
        2
176
     1
 62
     7
176
     1
 90
        5
176
     1
 90
        0
176
     1
 90
        0
176
     1
290
     0
176
     1
 90
        1
176
     1
 40
0.0
176
     1
 90
        0
176
     1
290
     0
176
     1
290
     1
176
     1
290
     1
176
     1
290
     0
176
     1
290
     0
176
     1
290
     0
176
     1
290
     0
176
     1
290
     0
176
     1
290
     0
176
     1
 90
       50
176
     1
 40
0.0
176
     1
 40
1.0
176
     1
 90
        0
176
     1
 62
    18
420
        0
176
     1
 90
       50
176
     1
 90
        3
176
     1
 62
     5
420
      255
176
     1
290
     0
176
     1
 90
       50
176
     1
 90
       50
176
     1
 90
       50
176
     1
290
     0
176
     1
 90
       50
176
     1
 62
   256
176
     0
 40
1.0
176
     0
 90
        2
176
     1
  1
strokes_ogs.tif
176
     1
290
     0
176
     1
 40
1.0
176
     1
 40
1.0
176
     1
  0
VISUALSTYLE
  5
40
102
{ACAD_REACTORS
330
29
102
}
330
29
100
AcDbVisualStyle
  2
OverhangOff
 70
    21
177
     3
291
     1
 70
    58
 90
        2
176
     0
 90
        2
176
     0
 90
        0
176
     0
 90
        0
176
     0
 40
0.6
176
     0
 40
30.0
176
     0
 62
     7
420
 16777215
176
     0
 90
        1
176
     0
 90
        4
176
     0
 62
     7
176
     0
 62
   257
176
     0
 90
        1
176
     0
 90
        1
176
     0
 40
1.0
176
     0
 90
        9
176
     2
 62
     7
176
     0
 40
1.0
176
     0
 90
        1
176
     0
 90
        6
176
     0
 90
        2
176
     0
 62
     7
176
     0
 90
        5
176
     0
 90
        0
176
     0
 90
        0
176
     0
290
     0
176
     0
 90
        1
176
     0
 40
0.0
176
     0
 90
        0
176
     0
290
     0
176
     0
290
     1
176
     0
290
     1
176
     0
290
     0
176
     0
290
     0
176
     0
290
     0
176
     0
290
     0
176
     0
290
     0
176
     0
290
     0
176
     0
 90
       50
176
     0
 40
0.0
176
     0
 40
1.0
176
     0
 90
        0
176
     0
 62
    18
420
        0
176
     0
 90
       50
176
     0
 90
        3
176
     0
 62
     5
420
      255
176
     0
290
     0
176
     0
 90
       50
176
     0
 90
       50
176
     0
 90
       50
176
     0
290
     0
176
     0
 90
       50
176
     0
 62
   256
176
     0
 40
1.0
176
     0
 90
        2
176
     0
  1
strokes_ogs.tif
176
     0
290
     0
176
     0
 40
1.0
176
     0
 40
1.0
176
     0
  0
VISUALSTYLE
  5
33
102
{ACAD_REACTORS
330
29
102
}
330
29
100
AcDbVisualStyle
  2
Realistic
 70
     8
177
     3
291
     0
 70
    58
 90
        2
176
     1
 90
        3
176
     1
 90
        0
176
     1
 90
        2
176
     1
 40
0.6
176
     1
 40
30.0
176
     1
 62
     7
420
 16777215
176
     1
 90
        0
176
     1
 90
        0
176
     1
 62
     7
176
     1
 62
   257
176
     1
 90
        1
176
     1
 90
        1
176
     1
 40
1.0
176
     1
 90
        8
176
     1
 62
   257
176
     1
 40
1.0
176
     1
 90
        1
176
     1
 90
        6
176
     1
 90
        2
176
     1
 62
     7
176
     1
 90
        3
176
     1
 90
        0
176
     1
 90
        0
176
     1
290
     0
176
     1
 90
       13
176
     1
 40
0.0
176
     1
 90
        0
176
     1
290
     0
176
     1
290
     1
176
     1
290
     1
176
     1
290
     0
176
     1
290
     0
176
     1
290
     0
176
     1
290
     0
176
     1
290
     0
176
     1
290
     0
176
     1
 90
       50
176
     1
 40
0.0
176
     1
 40
1.0
176
     1
 90
        0
176
     1
 62
    18
420
        0
176
     1
 90
       50
176
     1
 90
        3
176
     1
 62
     5
420
      255
176
     1
290
     0
176
     1
 90
       50
176
     1
 90
       50
176
     1
 90
       50
176
     1
290
     0
176
     1
 90
       50
176
     1
 62
   256
176
     0
 40
1.0
176
     0
 90
        2
176
     1
  1
strokes_ogs.tif
176
     1
290
     0
176
     1
 40
1.0
176
     1
 40
1.0
176
     1
  0
VISUALSTYLE
  5
3E
102
{ACAD_REACTORS
330
29
102
}
330
29
100
AcDbVisualStyle
  2
Shaded
 70
    27
177
     3
291
     0
 70
    58
 90
        2
176
     1
 90
        2
176
     1
 90
        1
176
     1
 90
        2
176
     1
 40
0.6
176
     1
 40
30.0
176
     1
 62
     7
420
 16777215
176
     1
 90
        0
176
     1
 90
        4
176
     1
 62
     7
176
     1
 62
   257
176
     1
 90
        1
176
     1
 90
        1
176
     1
 40
1.0
176
     1
 90
        8
176
     1
 62
   257
176
     1
 40
1.0
176
     1
 90
        1
176
     1
 90
        6
176
     1
 90
        2
176
     1
 62
     8
420
  7895160
176
     1
 90
        3
176
     1
 90
        0
176
     1
 90
        0
176
     1
290
     0
176
     1
 90
        5
176
     1
 40
0.0
176
     1
 90
        0
176
     1
290
     0
176
     1
290
     1
176
     1
290
     1
176
     1
290
     0
176
     1
290
     0
176
     1
290
     0
176
     1
290
     0
176
     1
290
     0
176
     1
290
     0
176
     1
 90
       50
176
     1
 40
0.0
176
     1
 40
1.0
176
     1
 90
        0
176
     1
 62
    18
420
        0
176
     1
 90
       50
176
     1
 90
        3
176
     1
 62
     5
420
      255
176
     1
290
     0
176
     1
 90
       50
176
     1
 90
       50
176
     1
 90
       50
176
     1
290
     0
176
     1
 90
       50
176
     1
 62
   256
176
     0
 40
1.0
176
     0
 90
        2
176
     1
  1
strokes_ogs.tif
176
     1
290
     0
176
     1
 40
1.0
176
     1
 40
1.0
176
     1
  0
VISUALSTYLE
  5
3D
102
{ACAD_REACTORS
330
29
102
}
330
29
100
AcDbVisualStyle
  2
Shaded with edges
 70
    26
177
     3
291
     0
 70
    58
 90
        2
176
     1
 90
        2
176
     1
 90
        1
176
     1
 90
        2
176
     1
 40
0.6
176
     1
 40
30.0
176
     1
 62
     7
420
 16777215
176
     1
 90
        1
176
     1
 90
        2
176
     1
 62
     7
176
     1
 62
   257
176
     1
 90
        2
176
     1
 90
        1
176
     1
 40
1.0
176
     1
 90
        8
176
     1
 62
   257
176
     1
 40
1.0
176
     1
 90
        1
176
     1
 90
        6
176
     1
 90
        2
176
     1
 62
     7
176
     1
 90
        3
176
     1
 90
        0
176
     1
 90
        0
176
     1
290
     0
176
     1
 90
        5
176
     1
 40
0.0
176
     1
 90
        0
176
     1
290
     0
176
     1
290
     1
176
     1
290
     1
176
     1
290
     0
176
     1
290
     0
176
     1
290
     0
176
     1
290
     0
176
     1
290
     0
176
     1
290
     0
176
     1
 90
       50
176
     1
 40
0.0
176
     1
 40
1.0
176
     1
 90
        0
176
     1
 62
    18
420
        0
176
     1
 90
       50
176
     1
 90
        3
176
     1
 62
     5
420
      255
176
     1
290
     0
176
     1
 90
       50
176
     1
 90
       50
176
     1
 90
       50
176
     1
290
     0
176
     1
 90
       50
176
     1
 62
   256
176
     0
 40
1.0
176
     0
 90
        2
176
     1
  1
strokes_ogs.tif
176
     1
290
     0
176
     1
 40
1.0
176
     1
 40
1.0
176
     1
  0
VISUALSTYLE
  5
3A
102
{ACAD_REACTORS
330
29
102
}
330
29
100
AcDbVisualStyle
  2
Shades of Gray
 70
    23
177
     3
291
     0
 70
    58
 90
        2
176
     1
 90
        2
176
     1
 90
        3
176
     1
 90
        0
176
     1
 40
0.6
176
     1
 40
30.0
176
     1
 62
     7
420
 16777215
176
     1
 90
        2
176
     1
 90
        2
176
     1
 62
     7
176
     1
 62
     7
176
     1
 90
        1
176
     1
 90
        1
176
     1
 40
40.0
176
     1
 90
        8
176
     1
 62
     7
176
     1
 40
1.0
176
     1
 90
        1
176
     1
 90
        6
176
     1
 90
        2
176
     1
 62
     7
176
     1
 90
        3
176
     1
 90
        0
176
     1
 90
        0
176
     1
290
     0
176
     1
 90
        1
176
     1
 40
0.0
176
     1
 90
        0
176
     1
290
     0
176
     1
290
     1
176
     1
290
     1
176
     1
290
     0
176
     1
290
     0
176
     1
290
     0
176
     1
290
     0
176
     1
290
     0
176
     1
290
     0
176
     1
 90
       50
176
     1
 40
0.0
176
     1
 40
1.0
176
     1
 90
        0
176
     1
 62
    18
420
        0
176
     1
 90
       50
176
     1
 90
        3
176
     1
 62
     5
420
      255
176
     1
290
     0
176
     1
 90
       50
176
     1
 90
       50
176
     1
 90
       50
176
     1
290
     0
176
     1
 90
       50
176
     1
 62
   256
176
     0
 40
1.0
176
     0
 90
        2
176
     1
  1
strokes_ogs.tif
176
     1
290
     0
176
     1
 40
1.0
176
     1
 40
1.0
176
     1
  0
VISUALSTYLE
  5
3B
102
{ACAD_REACTORS
330
29
102
}
330
29
100
AcDbVisualStyle
  2
Sketchy
 70
    24
177
     3
291
     0
 70
    58
 90
        1
176
     1
 90
        2
176
     1
 90
        2
176
     1
 90
        0
176
     1
 40
0.6
176
     1
 40
30.0
176
     1
 62
     7
420
 16777215
176
     1
 90
        2
176
     1
 90
        2
176
     1
 62
     7
176
     1
 62
     7
176
     1
 90
        1
176
     1
 90
        1
176
     1
 40
40.0
176
     1
 90
       11
176
     1
 62
     7
176
     1
 40
1.0
176
     1
 90
        1
176
     1
 90
        6
176
     1
 90
        2
176
     1
 62
     7
176
     1
 90
        6
176
     1
 90
        0
176
     1
 90
        0
176
     1
290
     0
176
     1
 90
        1
176
     1
 40
0.0
176
     1
 90
        0
176
     1
290
     0
176
     1
290
     1
176
     1
290
     1
176
     1
290
     0
176
     1
290
     0
176
     1
290
     0
176
     1
290
     0
176
     1
290
     0
176
     1
290
     0
176
     1
 90
       50
176
     1
 40
0.0
176
     1
 40
1.0
176
     1
 90
        0
176
     1
 62
    18
420
        0
176
     1
 90
       50
176
     1
 90
        3
176
     1
 62
     5
420
      255
176
     1
290
     0
176
     1
 90
       50
176
     1
 90
       50
176
     1
 90
       50
176
     1
290
     0
176
     1
 90
       50
176
     1
 62
   256
176
     0
 40
1.0
176
     0
 90
        2
176
     1
  1
strokes_ogs.tif
176
     1
290
     0
176
     1
 40
1.0
176
     1
 40
1.0
176
     1
  0
VISUALSTYLE
  5
36
102
{ACAD_REACTORS
330
29
102
}
330
29
100
AcDbVisualStyle
  2
Thicken
 70
    13
177
     3
291
     1
 70
    58
 90
        2
176
     1
 90
        2
176
     1
 90
        0
176
     1
 90
        0
176
     1
 40
0.6
176
     1
 40
30.0
176
     1
 62
     7
420
 16777215
176
     1
 90
        1
176
     1
 90
        4
176
     1
 62
     7
176
     1
 62
   257
176
     1
 90
        1
176
     1
 90
        1
176
     1
 40
1.0
176
     1
 90
       12
176
     1
 62
     7
176
     1
 40
1.0
176
     1
 90
        1
176
     1
 90
        6
176
     1
 90
        2
176
     1
 62
     7
176
     1
 90
        5
176
     1
 90
        0
176
     1
 90
        0
176
     1
290
     0
176
     1
 90
        1
176
     1
 40
0.0
176
     1
 90
        0
176
     1
290
     0
176
     1
290
     1
176
     1
290
     1
176
     1
290
     0
176
     1
290
     0
176
     1
290
     0
176
     1
290
     0
176
     1
290
     0
176
     1
290
     0
176
     1
 90
       50
176
     1
 40
0.0
176
     1
 40
1.0
176
     1
 90
        0
176
     1
 62
    18
420
        0
176
     1
 90
       50
176
     1
 90
        3
176
     1
 62
     5
420
      255
176
     1
290
     0
176
     1
 90
       50
176
     1
 90
       50
176
     1
 90
       50
176
     1
290
     0
176
     1
 90
       50
176
     1
 62
   256
176
     0
 40
1.0
176
     0
 90
        2
176
     1
  1
strokes_ogs.tif
176
     1
290
     0
176
     1
 40
1.0
176
     1
 40
1.0
176
     1
  0
VISUALSTYLE
  5
30
102
{ACAD_REACTORS
330
29
102
}
330
29
100
AcDbVisualStyle
  2
Wireframe
 70
     5
177
     3
291
     0
 70
    58
 90
        0
176
     1
 90
        2
176
     1
 90
        0
176
     1
 90
        0
176
     1
 40
0.6
176
     1
 40
30.0
176
     1
 62
     7
420
 16777215
176
     1
 90
        1
176
     1
 90
        4
176
     1
 62
     7
176
     1
 62
   257
176
     1
 90
        1
176
     1
 90
        1
176
     1
 40
1.0
176
     1
 90
        0
176
     1
 62
   257
176
     1
 40
1.0
176
     1
 90
        1
176
     1
 90
        6
176
     1
 90
        2
176
     1
 62
     7
176
     1
 90
        3
176
     1
 90
        0
176
     1
 90
        0
176
     1
290
     0
176
     1
 90
        1
176
     1
 40
0.0
176
     1
 90
        0
176
     1
290
     0
176
     1
290
     1
176
     1
290
     1
176
     1
290
     0
176
     1
290
     0
176
     1
290
     0
176
     1
290
     0
176
     1
290
     0
176
     1
290
     0
176
     1
 90
       50
176
     1
 40
0.0
176
     1
 40
1.0
176
     1
 90
        0
176
     1
 62
    18
420
        0
176
     1
 90
       50
176
     1
 90
        3
176
     1
 62
     5
420
      255
176
     1
290
     0
176
     1
 90
       50
176
     1
 90
       50
176
     1
 90
       50
176
     1
290
     0
176
     1
 90
       50
176
     1
 62
   256
176
     0
 40
1.0
176
     0
 90
        2
176
     1
  1
strokes_ogs.tif
176
     1
290
     0
176
     1
 40
1.0
176
     1
 40
1.0
176
     1
  0
VISUALSTYLE
  5
3C
102
{ACAD_REACTORS
330
29
102
}
330
29
100
AcDbVisualStyle
  2
X-Ray
 70
    25
177
     3
291
     0
 70
    58
 90
        2
176
     1
 90
        2
176
     1
 90
        1
176
     1
 90
        1
176
     1
 40
0.5
176
     1
 40
30.0
176
     1
 62
     7
420
 16777215
176
     1
 90
        1
176
     1
 90
        0
176
     1
 62
     7
176
     1
 62
   257
176
     1
 90
        1
176
     1
 90
        1
176
     1
 40
1.0
176
     1
 90
        8
176
     1
 62
     7
176
     1
 40
1.0
176
     1
 90
        1
176
     1
 90
        6
176
     1
 90
        2
176
     1
 62
     7
176
     1
 90
        3
176
     1
 90
        0
176
     1
 90
        0
176
     1
290
     0
176
     1
 90
       13
176
     1
 40
0.0
176
     1
 90
        0
176
     1
290
     0
176
     1
290
     1
176
     1
290
     1
176
     1
290
     0
176
     1
290
     0
176
     1
290
     0
176
     1
290
     0
176
     1
290
     0
176
     1
290
     0
176
     1
 90
       50
176
     1
 40
0.0
176
     1
 40
1.0
176
     1
 90
        0
176
     1
 62
    18
420
        0
176
     1
 90
       50
176
     1
 90
        3
176
     1
 62
     5
420
      255
176
     1
290
     0
176
     1
 90
       50
176
     1
 90
       50
176
     1
 90
       50
176
     1
290
     0
176
     1
 90
       50
176
     1
 62
   256
176
     0
 40
1.0
176
     0
 90
        2
176
     1
  1
strokes_ogs.tif
176
     1
290
     0
176
     1
 40
1.0
176
     1
 40
1.0
176
     1
  0
DICTIONARYVAR
  5
80
102
{ACAD_REACTORS
330
7B
102
}
330
7B
100
DictionaryVariables
280
     0
  1
1:1
  0
DICTIONARYVAR
  5
7D
102
{ACAD_REACTORS
330
7B
102
}
330
7B
100
DictionaryVariables
280
     0
  1
STANDARD
  0
DICTIONARYVAR
  5
7C
102
{ACAD_REACTORS
330
7B
102
}
330
7B
100
DictionaryVariables
280
     0
  1
STANDARD
  0
DICTIONARYVAR
  5
7E
102
{ACAD_REACTORS
330
7B
102
}
330
7B
100
DictionaryVariables
280
     0
  1
Imperial24
  0
DICTIONARYVAR
  5
7F
102
{ACAD_REACTORS
330
7B
102
}
330
7B
100
DictionaryVariables
280
     0
  1
Imperial24
  0
XRECORD
  5
1AE
102
{ACAD_REACTORS
330
1AA
102
}
330
1AA
100
AcDbXrecord
280
     1
  1
BUILDING_ID
  1
Revit Details - 2024
  1
FLOOR_ID
  1
1650330
  0
XRECORD
  5
1AC
102
{ACAD_REACTORS
330
1AA
102
}
330
1AA
100
AcDbXrecord
280
     1
  1
-2000051
  1
Lines
  1
-2000300
  1
Text Notes
  1
-2002000
  1
Detail Items
  0
XRECORD
  5
1AD
102
{ACAD_REACTORS
330
1AA
102
}
330
1AA
100
AcDbXrecord
280
     1
  1
-2000042
  1
<Thin Lines>
  1
-2000043
  1
<Medium Lines>
  0
XRECORD
  5
1AB
102
{ACAD_REACTORS
330
1AA
102
}
330
1AA
100
AcDbXrecord
280
     1
  1
1165269
  1
Text : RomanD-7/64"-Bold-Arrow
  1
1506189
  1
Filled region : Solid White
  1
1531977
  1
Text : RomanD-7/64"-Bold-Arrow-DUPLICATE
  1
23064
  1
Filled region : Solid Black
  0
DICTIONARY
  5
1A
330
19
100
AcDbDictionary
280
     1
281
     1
  3
BUMPTILE
360
1C
  3
DIFFUSETILE
360
1B
  3
OPACITYTILE
360
1F
  3
REFLECTIONTILE
360
1E
  3
REFRACTIONTILE
360
20
  3
SPECULARTILE
360
1D
  0
DICTIONARY
  5
12
330
11
100
AcDbDictionary
280
     1
281
     1
  3
BUMPTILE
360
14
  3
DIFFUSETILE
360
13
  3
OPACITYTILE
360
17
  3
REFLECTIONTILE
360
16
  3
REFRACTIONTILE
360
18
  3
SPECULARTILE
360
15
  0
DICTIONARY
  5
22
330
21
100
AcDbDictionary
280
     1
281
     1
  3
BUMPTILE
360
24
  3
DIFFUSETILE
360
23
  3
OPACITYTILE
360
27
  3
REFLECTIONTILE
360
26
  3
REFRACTIONTILE
360
28
  3
SPECULARTILE
360
25
  0
DICTIONARY
  5
1B3
330
65
100
AcDbDictionary
280
     1
281
     1
  3
ACAD_ROUNDTRIP_2008_TABLESTYLE_CELLSTYLEMAP
360
1B4
  0
XRECORD
  5
1C
102
{ACAD_REACTORS
330
1A
102
}
330
1A
100
AcDbXrecord
280
     1
270
     1
271
     1
  0
XRECORD
  5
1B
102
{ACAD_REACTORS
330
1A
102
}
330
1A
100
AcDbXrecord
280
     1
270
     1
271
     1
  0
XRECORD
  5
1F
102
{ACAD_REACTORS
330
1A
102
}
330
1A
100
AcDbXrecord
280
     1
270
     1
271
     1
  0
XRECORD
  5
1E
102
{ACAD_REACTORS
330
1A
102
}
330
1A
100
AcDbXrecord
280
     1
270
     1
271
     1
  0
XRECORD
  5
20
102
{ACAD_REACTORS
330
1A
102
}
330
1A
100
AcDbXrecord
280
     1
270
     1
271
     1
  0
XRECORD
  5
1D
102
{ACAD_REACTORS
330
1A
102
}
330
1A
100
AcDbXrecord
280
     1
270
     1
271
     1
  0
XRECORD
  5
14
102
{ACAD_REACTORS
330
12
102
}
330
12
100
AcDbXrecord
280
     1
270
     1
271
     1
  0
XRECORD
  5
13
102
{ACAD_REACTORS
330
12
102
}
330
12
100
AcDbXrecord
280
     1
270
     1
271
     1
  0
XRECORD
  5
17
102
{ACAD_REACTORS
330
12
102
}
330
12
100
AcDbXrecord
280
     1
270
     1
271
     1
  0
XRECORD
  5
16
102
{ACAD_REACTORS
330
12
102
}
330
12
100
AcDbXrecord
280
     1
270
     1
271
     1
  0
XRECORD
  5
18
102
{ACAD_REACTORS
330
12
102
}
330
12
100
AcDbXrecord
280
     1
270
     1
271
     1
  0
XRECORD
  5
15
102
{ACAD_REACTORS
330
12
102
}
330
12
100
AcDbXrecord
280
     1
270
     1
271
     1
  0
XRECORD
  5
24
102
{ACAD_REACTORS
330
22
102
}
330
22
100
AcDbXrecord
280
     1
270
     1
271
     1
  0
XRECORD
  5
23
102
{ACAD_REACTORS
330
22
102
}
330
22
100
AcDbXrecord
280
     1
270
     1
271
     1
  0
XRECORD
  5
27
102
{ACAD_REACTORS
330
22
102
}
330
22
100
AcDbXrecord
280
     1
270
     1
271
     1
  0
XRECORD
  5
26
102
{ACAD_REACTORS
330
22
102
}
330
22
100
AcDbXrecord
280
     1
270
     1
271
     1
  0
XRECORD
  5
28
102
{ACAD_REACTORS
330
22
102
}
330
22
100
AcDbXrecord
280
     1
270
     1
271
     1
  0
XRECORD
  5
25
102
{ACAD_REACTORS
330
22
102
}
330
22
100
AcDbXrecord
280
     1
270
     1
271
     1
  0
CELLSTYLEMAP
  5
1B4
102
{ACAD_REACTORS
330
1B3
102
}
330
1B3
100
AcDbCellStyleMap
 90
        3
300
CELLSTYLE
  1
TABLEFORMAT_BEGIN
 90
        5
170
     1
 91
        0
 92
    32768
 62
   257
 93
        1
300
CONTENTFORMAT
  1
CONTENTFORMAT_BEGIN
 90
        0
 91
        0
 92
      512
 93
        0
300

 40
0.0
140
1.0
 94
        5
 62
     0
340
55
144
0.25
309
CONTENTFORMAT_END
171
     0
 94
        0
309
TABLEFORMAT_END
  1
CELLSTYLE_BEGIN
 90
        1
 91
        1
300
_TITLE
309
CELLSTYLE_END
300
CELLSTYLE
  1
TABLEFORMAT_BEGIN
 90
        5
170
     1
 91
        0
 92
        0
 62
   257
 93
        1
300
CONTENTFORMAT
  1
CONTENTFORMAT_BEGIN
 90
        0
 91
        0
 92
      512
 93
        0
300

 40
0.0
140
1.0
 94
        5
 62
     0
340
55
144
0.18
309
CONTENTFORMAT_END
171
     0
 94
        0
309
TABLEFORMAT_END
  1
CELLSTYLE_BEGIN
 90
        2
 91
        1
300
_HEADER
309
CELLSTYLE_END
300
CELLSTYLE
  1
TABLEFORMAT_BEGIN
 90
        5
170
     1
 91
        0
 92
        0
 62
   257
 93
        1
300
CONTENTFORMAT
  1
CONTENTFORMAT_BEGIN
 90
        0
 91
        0
 92
      512
 93
        0
300

 40
0.0
140
1.0
 94
        2
 62
     0
340
55
144
0.18
309
CONTENTFORMAT_END
171
     0
 94
        0
309
TABLEFORMAT_END
  1
CELLSTYLE_BEGIN
 90
        3
 91
        2
300
_DATA
309
CELLSTYLE_END
  0
ENDSEC
  0
EOF
